  0
SECTION
  2
HEADER
  9
$ACADVER
  1
AC1014
  9
$ACADMAINTVER
 70
     9
  9
$DWGCODEPAGE
  3
ANSI_1250
  9
$INSBASE
 10
0.0
 20
0.0
 30
0.0
  9
$EXTMIN
 10
-29.7792
 20
-37.1467
 30
0.0
  9
$EXTMAX
 10
29.9203
 20
36.7083
 30
0.0
  9
$LIMMIN
 10
0.0
 20
0.0
  9
$LIMMAX
 10
12.0
 20
9.0
  9
$ORTHOMODE
 70
     0
  9
$REGENMODE
 70
     1
  9
$FILLMODE
 70
     1
  9
$QTEXTMODE
 70
     0
  9
$MIRRTEXT
 70
     1
  9
$DRAGMODE
 70
     2
  9
$LTSCALE
 40
1.0
  9
$OSMODE
 70
    37
  9
$ATTMODE
 70
     1
  9
$TEXTSIZE
 40
0.2
  9
$TRACEWID
 40
0.05
  9
$TEXTSTYLE
  7
STANDARD
  9
$CLAYER
  8
0
  9
$CELTYPE
  6
BYLAYER
  9
$CECOLOR
 62
   256
  9
$CELTSCALE
 40
1.0
  9
$DELOBJ
 70
     1
  9
$DISPSILH
 70
     0
  9
$DIMSCALE
 40
1.0
  9
$DIMASZ
 40
0.18
  9
$DIMEXO
 40
0.0625
  9
$DIMDLI
 40
0.38
  9
$DIMRND
 40
0.0
  9
$DIMDLE
 40
0.0
  9
$DIMEXE
 40
0.18
  9
$DIMTP
 40
0.0
  9
$DIMTM
 40
0.0
  9
$DIMTXT
 40
0.18
  9
$DIMCEN
 40
0.09
  9
$DIMTSZ
 40
0.0
  9
$DIMTOL
 70
     0
  9
$DIMLIM
 70
     0
  9
$DIMTIH
 70
     1
  9
$DIMTOH
 70
     1
  9
$DIMSE1
 70
     0
  9
$DIMSE2
 70
     0
  9
$DIMTAD
 70
     0
  9
$DIMZIN
 70
     0
  9
$DIMBLK
  1

  9
$DIMASO
 70
     1
  9
$DIMSHO
 70
     1
  9
$DIMPOST
  1

  9
$DIMAPOST
  1

  9
$DIMALT
 70
     0
  9
$DIMALTD
 70
     2
  9
$DIMALTF
 40
25.4
  9
$DIMLFAC
 40
1.0
  9
$DIMTOFL
 70
     0
  9
$DIMTVP
 40
0.0
  9
$DIMTIX
 70
     0
  9
$DIMSOXD
 70
     0
  9
$DIMSAH
 70
     0
  9
$DIMBLK1
  1

  9
$DIMBLK2
  1

  9
$DIMSTYLE
  2
STANDARD
  9
$DIMCLRD
 70
     0
  9
$DIMCLRE
 70
     0
  9
$DIMCLRT
 70
     0
  9
$DIMTFAC
 40
1.0
  9
$DIMGAP
 40
0.09
  9
$DIMJUST
 70
     0
  9
$DIMSD1
 70
     0
  9
$DIMSD2
 70
     0
  9
$DIMTOLJ
 70
     1
  9
$DIMTZIN
 70
     0
  9
$DIMALTZ
 70
     0
  9
$DIMALTTZ
 70
     0
  9
$DIMFIT
 70
     3
  9
$DIMUPT
 70
     0
  9
$DIMUNIT
 70
     2
  9
$DIMDEC
 70
     4
  9
$DIMTDEC
 70
     4
  9
$DIMALTU
 70
     2
  9
$DIMALTTD
 70
     2
  9
$DIMTXSTY
  7
STANDARD
  9
$DIMAUNIT
 70
     0
  9
$LUNITS
 70
     2
  9
$LUPREC
 70
     4
  9
$SKETCHINC
 40
0.1
  9
$FILLETRAD
 40
0.5
  9
$AUNITS
 70
     0
  9
$AUPREC
 70
     0
  9
$MENU
  1
.
  9
$ELEVATION
 40
0.0
  9
$PELEVATION
 40
0.0
  9
$THICKNESS
 40
0.0
  9
$LIMCHECK
 70
     0
  9
$CHAMFERA
 40
0.5
  9
$CHAMFERB
 40
0.5
  9
$CHAMFERC
 40
1.0
  9
$CHAMFERD
 40
0.0
  9
$SKPOLY
 70
     0
  9
$TDCREATE
 40
2456272.412820556
  9
$TDUPDATE
 40
2456272.412820567
  9
$TDINDWG
 40
0.0000000116
  9
$TDUSRTIMER
 40
0.0000000116
  9
$USRTIMER
 70
     1
  9
$ANGBASE
 50
0.0
  9
$ANGDIR
 70
     0
  9
$PDMODE
 70
     0
  9
$PDSIZE
 40
0.0
  9
$PLINEWID
 40
0.0
  9
$COORDS
 70
     1
  9
$SPLFRAME
 70
     0
  9
$SPLINETYPE
 70
     6
  9
$SPLINESEGS
 70
     8
  9
$ATTDIA
 70
     0
  9
$ATTREQ
 70
     1
  9
$HANDLING
 70
     1
  9
$HANDSEED
  5
92
  9
$SURFTAB1
 70
     6
  9
$SURFTAB2
 70
     6
  9
$SURFTYPE
 70
     6
  9
$SURFU
 70
     6
  9
$SURFV
 70
     6
  9
$UCSNAME
  2

  9
$UCSORG
 10
0.0
 20
0.0
 30
0.0
  9
$UCSXDIR
 10
1.0
 20
0.0
 30
0.0
  9
$UCSYDIR
 10
0.0
 20
1.0
 30
0.0
  9
$PUCSNAME
  2

  9
$PUCSORG
 10
0.0
 20
0.0
 30
0.0
  9
$PUCSXDIR
 10
1.0
 20
0.0
 30
0.0
  9
$PUCSYDIR
 10
0.0
 20
1.0
 30
0.0
  9
$USERI1
 70
     0
  9
$USERI2
 70
     0
  9
$USERI3
 70
     0
  9
$USERI4
 70
     0
  9
$USERI5
 70
     0
  9
$USERR1
 40
0.0
  9
$USERR2
 40
0.0
  9
$USERR3
 40
0.0
  9
$USERR4
 40
0.0
  9
$USERR5
 40
0.0
  9
$WORLDVIEW
 70
     1
  9
$SHADEDGE
 70
     3
  9
$SHADEDIF
 70
    70
  9
$TILEMODE
 70
     1
  9
$MAXACTVP
 70
    64
  9
$PINSBASE
 10
0.0
 20
0.0
 30
0.0
  9
$PLIMCHECK
 70
     0
  9
$PEXTMIN
 10
1.000000000000000E+20
 20
1.000000000000000E+20
 30
1.000000000000000E+20
  9
$PEXTMAX
 10
-1.000000000000000E+20
 20
-1.000000000000000E+20
 30
-1.000000000000000E+20
  9
$PLIMMIN
 10
0.0
 20
0.0
  9
$PLIMMAX
 10
12.0
 20
9.0
  9
$UNITMODE
 70
     0
  9
$VISRETAIN
 70
     1
  9
$PLINEGEN
 70
     0
  9
$PSLTSCALE
 70
     1
  9
$TREEDEPTH
 70
  3020
  9
$PICKSTYLE
 70
     1
  9
$CMLSTYLE
  2
STANDARD
  9
$CMLJUST
 70
     0
  9
$CMLSCALE
 40
1.0
  9
$PROXYGRAPHICS
 70
     1
  9
$MEASUREMENT
 70
     0
  0
ENDSEC
  0
SECTION
  2
CLASSES
  0
CLASS
  1
ACDBDICTIONARYWDFLT
  2
AcDbDictionaryWithDefault
  3
ObjectDBX Classes
 90
        0
280
     0
281
     0
  0
CLASS
  1
VISUALSTYLE
  2
AcDbVisualStyle
  3
ObjectDBX Classes
 90
     4095
280
     0
281
     0
  0
CLASS
  1
MATERIAL
  2
AcDbMaterial
  3
ObjectDBX Classes
 90
     1153
280
     0
281
     0
  0
CLASS
  1
DICTIONARYVAR
  2
AcDbDictionaryVar
  3
ObjectDBX Classes
 90
        0
280
     0
281
     0
  0
CLASS
  1
XRECORD
  2
AcDbXrecord
  3
AutoCAD 2000
 90
        0
280
     0
281
     0
  0
CLASS
  1
LWPOLYLINE
  2
AcDbPolyline
  3
AutoCAD 2000
 90
        0
280
     0
281
     1
  0
CLASS
  1
HATCH
  2
AcDbHatch
  3
AutoCAD 2000
 90
        0
280
     0
281
     1
  0
CLASS
  1
ACDBPLACEHOLDER
  2
AcDbPlaceHolder
  3
ObjectDBX Classes
 90
        0
280
     0
281
     0
  0
CLASS
  1
LAYOUT
  2
AcDbLayout
  3
ObjectDBX Classes
 90
        0
280
     0
281
     0
  0
ENDSEC
  0
SECTION
  2
TABLES
  0
TABLE
  2
VPORT
  5
8
330
0
100
AcDbSymbolTable
 70
     1
  0
VPORT
  5
29
330
8
100
AcDbSymbolTableRecord
100
AcDbViewportTableRecord
  2
*ACTIVE
 70
     0
 10
0.0
 20
0.0
 11
1.0
 21
1.0
 12
10.42990654205607
 22
4.5
 13
0.0
 23
0.0
 14
0.5
 24
0.5
 15
0.5
 25
0.5
 16
0.0
 26
0.0
 36
1.0
 17
0.0
 27
0.0
 37
0.0
 40
9.0
 41
1.972972972850329
 42
50.0
 43
0.0
 44
0.0
 50
0.0
 51
0.0
 71
     0
 72
   100
 73
     1
 74
     3
 75
     0
 76
     0
 77
     0
 78
     0
  0
ENDTAB
  0
TABLE
  2
LTYPE
  5
5
330
0
100
AcDbSymbolTable
 70
     2
  0
LTYPE
  5
14
330
5
100
AcDbSymbolTableRecord
100
AcDbLinetypeTableRecord
  2
BYBLOCK
 70
     0
  3

 72
    65
 73
     0
 40
0.0
  0
LTYPE
  5
15
330
5
100
AcDbSymbolTableRecord
100
AcDbLinetypeTableRecord
  2
BYLAYER
 70
     0
  3

 72
    65
 73
     0
 40
0.0
  0
LTYPE
  5
16
330
5
100
AcDbSymbolTableRecord
100
AcDbLinetypeTableRecord
  2
CONTINUOUS
 70
     0
  3
Solid line
 72
    65
 73
     0
 40
0.0
  0
LTYPE
  5
5E
330
5
100
AcDbSymbolTableRecord
100
AcDbLinetypeTableRecord
  2
NEW_LINE1
 70
     0
  3

 72
    65
 73
     4
 40
1.2
 49
0.5
 74
     4
 75
     0
340
0
 46
1.0
 50
0.0
 44
0.0
 45
0.0
 49
-0.3
 74
     4
 75
     0
340
0
 46
1.0
 50
0.0
 44
0.0
 45
0.0
 49
0.1
 74
     4
 75
     0
340
0
 46
1.0
 50
0.0
 44
0.0
 45
0.0
 49
-0.3
 74
     4
 75
     0
340
0
 46
1.0
 50
0.0
 44
0.0
 45
0.0
  0
ENDTAB
  0
TABLE
  2
LAYER
  5
2
330
0
100
AcDbSymbolTable
 70
     2
  0
LAYER
  5
10
330
2
100
AcDbSymbolTableRecord
100
AcDbLayerTableRecord
  2
0
 70
     0
 62
     7
  6
CONTINUOUS
  0
LAYER
  5
40
330
2
100
AcDbSymbolTableRecord
100
AcDbLayerTableRecord
  2
VRSTVA_1
 70
     0
 62
     7
  6
CONTINUOUS
  0
ENDTAB
  0
TABLE
  2
STYLE
  5
3
330
0
100
AcDbSymbolTable
 70
     1
  0
STYLE
  5
11
330
3
100
AcDbSymbolTableRecord
100
AcDbTextStyleTableRecord
  2
STANDARD
 70
     0
 40
0.0
 41
1.0
 50
0.0
 71
     0
 42
0.2
  3
txt
  4

  0
ENDTAB
  0
TABLE
  2
VIEW
  5
6
330
0
100
AcDbSymbolTable
 70
     0
  0
ENDTAB
  0
TABLE
  2
UCS
  5
7
330
0
100
AcDbSymbolTable
 70
     0
  0
ENDTAB
  0
TABLE
  2
APPID
  5
9
330
0
100
AcDbSymbolTable
 70
     2
  0
APPID
  5
12
330
9
100
AcDbSymbolTableRecord
100
AcDbRegAppTableRecord
  2
ACAD
 70
     0
  0
APPID
  5
3F
330
9
100
AcDbSymbolTableRecord
100
AcDbRegAppTableRecord
  2
ODA
 70
     0
  0
ENDTAB
  0
TABLE
  2
DIMSTYLE
  5
A
330
0
100
AcDbSymbolTable
 70
     1
  0
DIMSTYLE
105
27
330
A
100
AcDbSymbolTableRecord
100
AcDbDimStyleTableRecord
  2
STANDARD
 70
     0
  3

  4

  5

  6

  7

 40
1.0
 41
0.18
 42
0.0625
 43
0.38
 44
0.18
 45
0.0
 46
0.0
 47
0.0
 48
0.0
140
0.18
141
0.09
142
0.0
143
25.4
144
1.0
145
0.0
146
1.0
147
0.09
 71
     0
 72
     0
 73
     1
 74
     1
 75
     0
 76
     0
 77
     0
 78
     0
170
     0
171
     2
172
     0
173
     0
174
     0
175
     0
176
     0
177
     0
178
     0
270
     2
271
     4
272
     4
273
     2
274
     2
340
11
275
     0
280
     0
281
     0
282
     0
283
     1
284
     0
285
     0
286
     0
287
     3
288
     0
  0
ENDTAB
  0
TABLE
  2
BLOCK_RECORD
  5
1
330
0
100
AcDbSymbolTable
 70
     1
  0
BLOCK_RECORD
  5
1F
330
1
100
AcDbSymbolTableRecord
100
AcDbBlockTableRecord
  2
*MODEL_SPACE
  0
BLOCK_RECORD
  5
1B
330
1
100
AcDbSymbolTableRecord
100
AcDbBlockTableRecord
  2
*PAPER_SPACE
  0
ENDTAB
  0
ENDSEC
  0
SECTION
  2
BLOCKS
  0
BLOCK
  5
20
330
1F
100
AcDbEntity
  8
0
100
AcDbBlockBegin
  2
*MODEL_SPACE
 70
     0
 10
0.0
 20
0.0
 30
0.0
  3
*MODEL_SPACE
  1

  0
ENDBLK
  5
21
330
1F
100
AcDbEntity
  8
0
100
AcDbBlockEnd
  0
BLOCK
  5
1C
330
1B
100
AcDbEntity
 67
     1
  8
0
100
AcDbBlockBegin
  2
*PAPER_SPACE
 70
     0
 10
0.0
 20
0.0
 30
0.0
  3
*PAPER_SPACE
  1

  0
ENDBLK
  5
1D
330
1B
100
AcDbEntity
 67
     1
  8
0
100
AcDbBlockEnd
  0
ENDSEC
  0
SECTION
  2
ENTITIES
  0
SPLINE
  5
41
330
1F
100
AcDbEntity
  8
VRSTVA_1
 62
   250
100
AcDbSpline
210
0.0
220
0.0
230
1.0
 70
     8
 71
     3
 72
    24
 73
    20
 74
     0
 42
0.0000000001
 43
0.0000000001
 40
0.0
 40
0.0
 40
0.0
 40
0.0
 40
0.1666666666666667
 40
0.1666666666666667
 40
0.1666666666666667
 40
0.1666666666666667
 40
0.3333333333333333
 40
0.3333333333333333
 40
0.3333333333333333
 40
0.3333333333333333
 40
0.5
 40
0.5
 40
0.5
 40
0.5
 40
0.6666666666666666
 40
0.6666666666666666
 40
0.6666666666666666
 40
0.6666666666666666
 40
1.0
 40
1.0
 40
1.0
 40
1.0
 10
-6.9141
 20
1.2555
 30
0.0
 10
-6.9141
 20
1.2555
 30
0.0
 10
-6.9141
 20
-22.6412
 30
0.0
 10
-6.9141
 20
-22.6412
 30
0.0
 10
-6.9141
 20
-22.6412
 30
0.0
 10
-6.9141
 20
-22.6412
 30
0.0
 10
-6.2369
 20
-26.2692
 30
0.0
 10
-6.2369
 20
-26.2692
 30
0.0
 10
-6.2369
 20
-26.2692
 30
0.0
 10
-6.2369
 20
-26.2692
 30
0.0
 10
23.1743
 20
-26.2208
 30
0.0
 10
23.1743
 20
-26.2208
 30
0.0
 10
23.1743
 20
-26.2208
 30
0.0
 10
23.1743
 20
-26.2208
 30
0.0
 10
23.8515
 20
-22.6895
 30
0.0
 10
23.8515
 20
-22.6895
 30
0.0
 10
23.8515
 20
-22.6895
 30
0.0
 10
23.8515
 20
-22.6895
 30
0.0
 10
23.8031
 20
1.3522
 30
0.0
 10
23.8031
 20
1.3522
 30
0.0
  0
SPLINE
  5
42
330
1F
100
AcDbEntity
  8
VRSTVA_1
 62
   250
100
AcDbSpline
210
0.0
220
0.0
230
1.0
 70
    24
 71
     3
 72
     8
 73
     4
 74
     0
 42
0.0000000001
 43
0.0000000001
 40
0.0
 40
0.0
 40
0.0
 40
0.0
 40
1.0
 40
1.0
 40
1.0
 40
1.0
 10
-6.726
 20
-22.7433
 30
0.0
 10
-6.726
 20
-22.7433
 30
0.0
 10
23.8569
 20
-22.797
 30
0.0
 10
23.8569
 20
-22.797
 30
0.0
  0
SPLINE
  5
43
330
1F
100
AcDbEntity
  8
VRSTVA_1
 62
   250
100
AcDbSpline
210
0.0
220
0.0
230
1.0
 70
    11
 71
     3
 72
    20
 73
    16
 74
     0
 42
0.0000000001
 43
0.0000000001
 40
0.0
 40
0.0
 40
0.0
 40
0.0
 40
0.2
 40
0.2
 40
0.2
 40
0.2
 40
0.4
 40
0.4
 40
0.4
 40
0.4
 40
0.6
 40
0.6
 40
0.6
 40
0.6
 40
1.0
 40
1.0
 40
1.0
 40
1.0
 10
-12.9933
 20
3.2429
 30
0.0
 10
-12.9933
 20
3.2429
 30
0.0
 10
29.7792
 20
3.2429
 30
0.0
 10
29.7792
 20
3.2429
 30
0.0
 10
29.7792
 20
3.2429
 30
0.0
 10
29.7792
 20
3.2429
 30
0.0
 10
29.7792
 20
1.3701
 30
0.0
 10
29.7792
 20
1.3701
 30
0.0
 10
29.7792
 20
1.3701
 30
0.0
 10
29.7792
 20
1.3701
 30
0.0
 10
-12.9933
 20
1.3701
 30
0.0
 10
-12.9933
 20
1.3701
 30
0.0
 10
-12.9933
 20
1.3701
 30
0.0
 10
-12.9933
 20
1.3701
 30
0.0
 10
-12.9933
 20
3.2429
 30
0.0
 10
-12.9933
 20
3.2429
 30
0.0
  0
SPLINE
  5
44
330
1F
100
AcDbEntity
  8
VRSTVA_1
 62
   250
100
AcDbSpline
210
0.0
220
0.0
230
1.0
 70
    24
 71
     3
 72
     8
 73
     4
 74
     0
 42
0.0000000001
 43
0.0000000001
 40
0.0
 40
0.0
 40
0.0
 40
0.0
 40
1.0
 40
1.0
 40
1.0
 40
1.0
 10
-2.0728
 20
9.9234
 30
0.0
 10
-2.0728
 20
9.9234
 30
0.0
 10
-2.0728
 20
3.2625
 30
0.0
 10
-2.0728
 20
3.2625
 30
0.0
  0
SPLINE
  5
45
330
1F
100
AcDbEntity
  8
VRSTVA_1
 62
   250
100
AcDbSpline
210
0.0
220
0.0
230
1.0
 70
    24
 71
     3
 72
     8
 73
     4
 74
     0
 42
0.0000000001
 43
0.0000000001
 40
0.0
 40
0.0
 40
0.0
 40
0.0
 40
1.0
 40
1.0
 40
1.0
 40
1.0
 10
19.1142
 20
9.8318
 30
0.0
 10
19.1142
 20
9.8318
 30
0.0
 10
19.1142
 20
3.171
 30
0.0
 10
19.1142
 20
3.171
 30
0.0
  0
SPLINE
  5
46
330
1F
100
AcDbEntity
  8
VRSTVA_1
 62
   250
100
AcDbSpline
210
0.0
220
0.0
230
1.0
 70
     8
 71
     3
 72
    16
 73
    12
 74
     0
 42
0.0000000001
 43
0.0000000001
 40
0.0
 40
0.0
 40
0.0
 40
0.0
 40
0.25
 40
0.25
 40
0.25
 40
0.25
 40
0.5
 40
0.5
 40
0.5
 40
0.5
 40
1.0
 40
1.0
 40
1.0
 40
1.0
 10
3.074
 20
9.9032
 30
0.0
 10
3.074
 20
9.9032
 30
0.0
 10
3.074
 20
8.2461
 30
0.0
 10
3.074
 20
8.2461
 30
0.0
 10
3.074
 20
8.2461
 30
0.0
 10
3.074
 20
8.2461
 30
0.0
 10
13.6015
 20
8.2461
 30
0.0
 10
13.6015
 20
8.2461
 30
0.0
 10
13.6015
 20
8.2461
 30
0.0
 10
13.6015
 20
8.2461
 30
0.0
 10
13.6015
 20
9.9234
 30
0.0
 10
13.6015
 20
9.9234
 30
0.0
  0
SPLINE
  5
47
330
1F
100
AcDbEntity
  8
VRSTVA_1
 62
   250
100
AcDbSpline
210
0.0
220
0.0
230
1.0
 70
    11
 71
     3
 72
    68
 73
    64
 74
     0
 42
0.0000000001
 43
0.0000000001
 40
0.0
 40
0.0
 40
0.0
 40
0.0
 40
0.0588235294117647
 40
0.0588235294117647
 40
0.0588235294117647
 40
0.0588235294117647
 40
0.1176470588235294
 40
0.1176470588235294
 40
0.1176470588235294
 40
0.1176470588235294
 40
0.1764705882352941
 40
0.1764705882352941
 40
0.1764705882352941
 40
0.1764705882352941
 40
0.2352941176470588
 40
0.2352941176470588
 40
0.2352941176470588
 40
0.2352941176470588
 40
0.2941176470588235
 40
0.2941176470588235
 40
0.2941176470588235
 40
0.2941176470588235
 40
0.3529411764705883
 40
0.3529411764705883
 40
0.3529411764705883
 40
0.3529411764705883
 40
0.4117647058823529
 40
0.4117647058823529
 40
0.4117647058823529
 40
0.4117647058823529
 40
0.4705882352941176
 40
0.4705882352941176
 40
0.4705882352941176
 40
0.4705882352941176
 40
0.5294117647058824
 40
0.5294117647058824
 40
0.5294117647058824
 40
0.5294117647058824
 40
0.5882352941176471
 40
0.5882352941176471
 40
0.5882352941176471
 40
0.5882352941176471
 40
0.6470588235294118
 40
0.6470588235294118
 40
0.6470588235294118
 40
0.6470588235294118
 40
0.7058823529411765
 40
0.7058823529411765
 40
0.7058823529411765
 40
0.7058823529411765
 40
0.7647058823529411
 40
0.7647058823529411
 40
0.7647058823529411
 40
0.7647058823529411
 40
0.8235294117647058
 40
0.8235294117647058
 40
0.8235294117647058
 40
0.8235294117647058
 40
0.8823529411764706
 40
0.8823529411764706
 40
0.8823529411764706
 40
0.8823529411764706
 40
1.0
 40
1.0
 40
1.0
 40
1.0
 10
-5.7513
 20
9.9234
 30
0.0
 10
-5.7513
 20
9.9234
 30
0.0
 10
22.4716
 20
9.9088
 30
0.0
 10
22.4716
 20
9.9088
 30
0.0
 10
22.4716
 20
9.9088
 30
0.0
 10
22.4716
 20
9.9088
 30
0.0
 10
20.2246
 20
34.7296
 30
0.0
 10
20.2246
 20
34.7296
 30
0.0
 10
20.2246
 20
34.7296
 30
0.0
 10
20.2246
 20
34.7296
 30
0.0
 10
20.1352
 20
35.0429
 30
0.0
 10
20.1352
 20
35.0429
 30
0.0
 10
20.1352
 20
35.0429
 30
0.0
 10
20.1352
 20
35.0429
 30
0.0
 10
20.0086
 20
35.3265
 30
0.0
 10
20.0086
 20
35.3265
 30
0.0
 10
20.0086
 20
35.3265
 30
0.0
 10
20.0086
 20
35.3265
 30
0.0
 10
19.8597
 20
35.528
 30
0.0
 10
19.8597
 20
35.528
 30
0.0
 10
19.8597
 20
35.528
 30
0.0
 10
19.8597
 20
35.528
 30
0.0
 10
19.6586
 20
35.6922
 30
0.0
 10
19.6586
 20
35.6922
 30
0.0
 10
19.6586
 20
35.6922
 30
0.0
 10
19.6586
 20
35.6922
 30
0.0
 10
19.45
 20
35.7519
 30
0.0
 10
19.45
 20
35.7519
 30
0.0
 10
19.45
 20
35.7519
 30
0.0
 10
19.45
 20
35.7519
 30
0.0
 10
19.1969
 20
35.7668
 30
0.0
 10
19.1969
 20
35.7668
 30
0.0
 10
19.1969
 20
35.7668
 30
0.0
 10
19.1969
 20
35.7668
 30
0.0
 10
-2.6515
 20
35.7593
 30
0.0
 10
-2.6515
 20
35.7593
 30
0.0
 10
-2.6515
 20
35.7593
 30
0.0
 10
-2.6515
 20
35.7593
 30
0.0
 10
-2.9047
 20
35.6773
 30
0.0
 10
-2.9047
 20
35.6773
 30
0.0
 10
-2.9047
 20
35.6773
 30
0.0
 10
-2.9047
 20
35.6773
 30
0.0
 10
-3.0835
 20
35.5728
 30
0.0
 10
-3.0835
 20
35.5728
 30
0.0
 10
-3.0835
 20
35.5728
 30
0.0
 10
-3.0835
 20
35.5728
 30
0.0
 10
-3.2324
 20
35.4236
 30
0.0
 10
-3.2324
 20
35.4236
 30
0.0
 10
-3.2324
 20
35.4236
 30
0.0
 10
-3.2324
 20
35.4236
 30
0.0
 10
-3.3516
 20
35.222
 30
0.0
 10
-3.3516
 20
35.222
 30
0.0
 10
-3.3516
 20
35.222
 30
0.0
 10
-3.3516
 20
35.222
 30
0.0
 10
-3.4483
 20
34.9758
 30
0.0
 10
-3.4483
 20
34.9758
 30
0.0
 10
-3.4483
 20
34.9758
 30
0.0
 10
-3.4483
 20
34.9758
 30
0.0
 10
-3.4855
 20
34.7968
 30
0.0
 10
-3.4855
 20
34.7968
 30
0.0
 10
-3.4855
 20
34.7968
 30
0.0
 10
-3.4855
 20
34.7968
 30
0.0
 10
-5.7513
 20
9.9234
 30
0.0
 10
-5.7513
 20
9.9234
 30
0.0
  0
SPLINE
  5
48
330
1F
100
AcDbEntity
  8
VRSTVA_1
 62
   250
100
AcDbSpline
210
0.0
220
0.0
230
1.0
 70
    11
 71
     3
 72
    68
 73
    64
 74
     0
 42
0.0000000001
 43
0.0000000001
 40
0.0
 40
0.0
 40
0.0
 40
0.0
 40
0.0588235294117647
 40
0.0588235294117647
 40
0.0588235294117647
 40
0.0588235294117647
 40
0.1176470588235294
 40
0.1176470588235294
 40
0.1176470588235294
 40
0.1176470588235294
 40
0.1764705882352941
 40
0.1764705882352941
 40
0.1764705882352941
 40
0.1764705882352941
 40
0.2352941176470588
 40
0.2352941176470588
 40
0.2352941176470588
 40
0.2352941176470588
 40
0.2941176470588235
 40
0.2941176470588235
 40
0.2941176470588235
 40
0.2941176470588235
 40
0.3529411764705883
 40
0.3529411764705883
 40
0.3529411764705883
 40
0.3529411764705883
 40
0.4117647058823529
 40
0.4117647058823529
 40
0.4117647058823529
 40
0.4117647058823529
 40
0.4705882352941176
 40
0.4705882352941176
 40
0.4705882352941176
 40
0.4705882352941176
 40
0.5294117647058824
 40
0.5294117647058824
 40
0.5294117647058824
 40
0.5294117647058824
 40
0.5882352941176471
 40
0.5882352941176471
 40
0.5882352941176471
 40
0.5882352941176471
 40
0.6470588235294118
 40
0.6470588235294118
 40
0.6470588235294118
 40
0.6470588235294118
 40
0.7058823529411765
 40
0.7058823529411765
 40
0.7058823529411765
 40
0.7058823529411765
 40
0.7647058823529411
 40
0.7647058823529411
 40
0.7647058823529411
 40
0.7647058823529411
 40
0.8235294117647058
 40
0.8235294117647058
 40
0.8235294117647058
 40
0.8235294117647058
 40
0.8823529411764706
 40
0.8823529411764706
 40
0.8823529411764706
 40
0.8823529411764706
 40
1.0
 40
1.0
 40
1.0
 40
1.0
 10
-27.6239
 20
3.4426
 30
0.0
 10
-27.7108
 20
3.2047
 30
0.0
 10
-27.8346
 20
3.0287
 30
0.0
 10
-27.9965
 20
2.9136
 30
0.0
 10
-27.9965
 20
2.9136
 30
0.0
 10
-28.1573
 20
2.7995
 30
0.0
 10
-28.3506
 20
2.7419
 30
0.0
 10
-28.5755
 20
2.7419
 30
0.0
 10
-28.5755
 20
2.7419
 30
0.0
 10
-28.9155
 20
2.7419
 30
0.0
 10
-29.2001
 20
2.8636
 30
0.0
 10
-29.4315
 20
3.108
 30
0.0
 10
-29.4315
 20
3.108
 30
0.0
 10
-29.6629
 20
3.3524
 30
0.0
 10
-29.7792
 20
3.6762
 30
0.0
 10
-29.7792
 20
4.0813
 30
0.0
 10
-29.7792
 20
4.0813
 30
0.0
 10
-29.7792
 20
4.4886
 30
0.0
 10
-29.6607
 20
4.8167
 30
0.0
 10
-29.4239
 20
5.0655
 30
0.0
 10
-29.4239
 20
5.0655
 30
0.0
 10
-29.1871
 20
5.3132
 30
0.0
 10
-28.8992
 20
5.437
 30
0.0
 10
-28.5592
 20
5.437
 30
0.0
 10
-28.5592
 20
5.437
 30
0.0
 10
-28.343
 20
5.437
 30
0.0
 10
-28.1551
 20
5.3805
 30
0.0
 10
-27.9943
 20
5.2675
 30
0.0
 10
-27.9943
 20
5.2675
 30
0.0
 10
-27.8346
 20
5.1535
 30
0.0
 10
-27.7108
 20
4.9818
 30
0.0
 10
-27.6239
 20
4.7504
 30
0.0
 10
-27.6239
 20
4.7504
 30
0.0
 10
-27.5304
 20
5.0362
 30
0.0
 10
-27.3805
 20
5.2545
 30
0.0
 10
-27.172
 20
5.4044
 30
0.0
 10
-27.172
 20
5.4044
 30
0.0
 10
-26.9645
 20
5.5532
 30
0.0
 10
-26.7157
 20
5.6282
 30
0.0
 10
-26.4278
 20
5.6282
 30
0.0
 10
-26.4278
 20
5.6282
 30
0.0
 10
-26.028
 20
5.6282
 30
0.0
 10
-25.6935
 20
5.487
 30
0.0
 10
-25.4219
 20
5.2056
 30
0.0
 10
-25.4219
 20
5.2056
 30
0.0
 10
-25.1503
 20
4.9232
 30
0.0
 10
-25.0145
 20
4.5516
 30
0.0
 10
-25.0145
 20
4.091
 30
0.0
 10
-25.0145
 20
4.091
 30
0.0
 10
-25.0145
 20
3.6305
 30
0.0
 10
-25.1503
 20
3.2601
 30
0.0
 10
-25.423
 20
2.9776
 30
0.0
 10
-25.423
 20
2.9776
 30
0.0
 10
-25.6956
 20
2.6952
 30
0.0
 10
-26.0357
 20
2.554
 30
0.0
 10
-26.443
 20
2.554
 30
0.0
 10
-26.443
 20
2.554
 30
0.0
 10
-26.7461
 20
2.554
 30
0.0
 10
-27.0003
 20
2.6311
 30
0.0
 10
-27.2056
 20
2.7854
 30
0.0
 10
-27.2056
 20
2.7854
 30
0.0
 10
-27.4099
 20
2.9385
 30
0.0
 10
-27.55
 20
3.158
 30
0.0
 10
-27.6239
 20
3.4426
 30
0.0
  0
SPLINE
  5
49
330
1F
100
AcDbEntity
  8
VRSTVA_1
 62
   250
100
AcDbSpline
210
0.0
220
0.0
230
1.0
 70
    11
 71
     3
 72
    36
 73
    32
 74
     0
 42
0.0000000001
 43
0.0000000001
 40
0.0
 40
0.0
 40
0.0
 40
0.0
 40
0.1111111111111111
 40
0.1111111111111111
 40
0.1111111111111111
 40
0.1111111111111111
 40
0.2222222222222222
 40
0.2222222222222222
 40
0.2222222222222222
 40
0.2222222222222222
 40
0.3333333333333333
 40
0.3333333333333333
 40
0.3333333333333333
 40
0.3333333333333333
 40
0.4444444444444444
 40
0.4444444444444444
 40
0.4444444444444444
 40
0.4444444444444444
 40
0.5555555555555556
 40
0.5555555555555556
 40
0.5555555555555556
 40
0.5555555555555556
 40
0.6666666666666666
 40
0.6666666666666666
 40
0.6666666666666666
 40
0.6666666666666666
 40
0.7777777777777778
 40
0.7777777777777778
 40
0.7777777777777778
 40
0.7777777777777778
 40
1.0
 40
1.0
 40
1.0
 40
1.0
 10
-28.5951
 20
3.3274
 30
0.0
 10
-28.3745
 20
3.3274
 30
0.0
 10
-28.1942
 20
3.3991
 30
0.0
 10
-28.0541
 20
3.5404
 30
0.0
 10
-28.0541
 20
3.5404
 30
0.0
 10
-27.9139
 20
3.6827
 30
0.0
 10
-27.8433
 20
3.8673
 30
0.0
 10
-27.8433
 20
4.0943
 30
0.0
 10
-27.8433
 20
4.0943
 30
0.0
 10
-27.8433
 20
4.3148
 30
0.0
 10
-27.9128
 20
4.4962
 30
0.0
 10
-28.0519
 20
4.6375
 30
0.0
 10
-28.0519
 20
4.6375
 30
0.0
 10
-28.1909
 20
4.7787
 30
0.0
 10
-28.3615
 20
4.8482
 30
0.0
 10
-28.5625
 20
4.8482
 30
0.0
 10
-28.5625
 20
4.8482
 30
0.0
 10
-28.7732
 20
4.8482
 30
0.0
 10
-28.9492
 20
4.7765
 30
0.0
 10
-29.0926
 20
4.6309
 30
0.0
 10
-29.0926
 20
4.6309
 30
0.0
 10
-29.236
 20
4.4854
 30
0.0
 10
-29.3077
 20
4.305
 30
0.0
 10
-29.3077
 20
4.0878
 30
0.0
 10
-29.3077
 20
4.0878
 30
0.0
 10
-29.3077
 20
3.8694
 30
0.0
 10
-29.2371
 20
3.6881
 30
0.0
 10
-29.098
 20
3.5436
 30
0.0
 10
-29.098
 20
3.5436
 30
0.0
 10
-28.9579
 20
3.3991
 30
0.0
 10
-28.7895
 20
3.3274
 30
0.0
 10
-28.5951
 20
3.3274
 30
0.0
  0
SPLINE
  5
4A
330
1F
100
AcDbEntity
  8
VRSTVA_1
 62
   250
100
AcDbSpline
210
0.0
220
0.0
230
1.0
 70
    11
 71
     3
 72
    40
 73
    36
 74
     0
 42
0.0000000001
 43
0.0000000001
 40
0.0
 40
0.0
 40
0.0
 40
0.0
 40
0.1
 40
0.1
 40
0.1
 40
0.1
 40
0.2
 40
0.2
 40
0.2
 40
0.2
 40
0.3
 40
0.3
 40
0.3
 40
0.3
 40
0.4
 40
0.4
 40
0.4
 40
0.4
 40
0.5
 40
0.5
 40
0.5
 40
0.5
 40
0.6
 40
0.6
 40
0.6
 40
0.6
 40
0.7
 40
0.7
 40
0.7
 40
0.7
 40
0.8
 40
0.8
 40
0.8
 40
0.8
 40
1.0
 40
1.0
 40
1.0
 40
1.0
 10
-26.4398
 20
3.1428
 30
0.0
 10
-26.2768
 20
3.1428
 30
0.0
 10
-26.1182
 20
3.1819
 30
0.0
 10
-25.9661
 20
3.259
 30
0.0
 10
-25.9661
 20
3.259
 30
0.0
 10
-25.813
 20
3.3361
 30
0.0
 10
-25.6945
 20
3.4513
 30
0.0
 10
-25.6109
 20
3.6045
 30
0.0
 10
-25.6109
 20
3.6045
 30
0.0
 10
-25.5272
 20
3.7576
 30
0.0
 10
-25.4849
 20
3.9216
 30
0.0
 10
-25.4849
 20
4.0976
 30
0.0
 10
-25.4849
 20
4.0976
 30
0.0
 10
-25.4849
 20
4.3713
 30
0.0
 10
-25.5729
 20
4.5973
 30
0.0
 10
-25.7499
 20
4.7754
 30
0.0
 10
-25.7499
 20
4.7754
 30
0.0
 10
-25.9259
 20
4.9536
 30
0.0
 10
-26.1497
 20
5.0427
 30
0.0
 10
-26.4213
 20
5.0427
 30
0.0
 10
-26.4213
 20
5.0427
 30
0.0
 10
-26.6972
 20
5.0427
 30
0.0
 10
-26.9254
 20
4.9514
 30
0.0
 10
-27.1057
 20
4.7678
 30
0.0
 10
-27.1057
 20
4.7678
 30
0.0
 10
-27.286
 20
4.5842
 30
0.0
 10
-27.3762
 20
4.3539
 30
0.0
 10
-27.3762
 20
4.078
 30
0.0
 10
-27.3762
 20
4.078
 30
0.0
 10
-27.3762
 20
3.8087
 30
0.0
 10
-27.2871
 20
3.586
 30
0.0
 10
-27.1089
 20
3.4089
 30
0.0
 10
-27.1089
 20
3.4089
 30
0.0
 10
-26.9297
 20
3.2319
 30
0.0
 10
-26.707
 20
3.1428
 30
0.0
 10
-26.4398
 20
3.1428
 30
0.0
  0
SPLINE
  5
4B
330
1F
100
AcDbEntity
  8
VRSTVA_1
 62
   250
100
AcDbSpline
210
0.0
220
0.0
230
1.0
 70
    11
 71
     3
 72
    92
 73
    88
 74
     0
 42
0.0000000001
 43
0.0000000001
 40
0.0
 40
0.0
 40
0.0
 40
0.0
 40
0.0434782608695652
 40
0.0434782608695652
 40
0.0434782608695652
 40
0.0434782608695652
 40
0.0869565217391304
 40
0.0869565217391304
 40
0.0869565217391304
 40
0.0869565217391304
 40
0.1304347826086956
 40
0.1304347826086956
 40
0.1304347826086956
 40
0.1304347826086956
 40
0.1739130434782609
 40
0.1739130434782609
 40
0.1739130434782609
 40
0.1739130434782609
 40
0.2173913043478261
 40
0.2173913043478261
 40
0.2173913043478261
 40
0.2173913043478261
 40
0.2608695652173913
 40
0.2608695652173913
 40
0.2608695652173913
 40
0.2608695652173913
 40
0.3043478260869565
 40
0.3043478260869565
 40
0.3043478260869565
 40
0.3043478260869565
 40
0.3478260869565217
 40
0.3478260869565217
 40
0.3478260869565217
 40
0.3478260869565217
 40
0.391304347826087
 40
0.391304347826087
 40
0.391304347826087
 40
0.391304347826087
 40
0.4347826086956522
 40
0.4347826086956522
 40
0.4347826086956522
 40
0.4347826086956522
 40
0.4782608695652174
 40
0.4782608695652174
 40
0.4782608695652174
 40
0.4782608695652174
 40
0.5217391304347826
 40
0.5217391304347826
 40
0.5217391304347826
 40
0.5217391304347826
 40
0.5652173913043478
 40
0.5652173913043478
 40
0.5652173913043478
 40
0.5652173913043478
 40
0.6086956521739131
 40
0.6086956521739131
 40
0.6086956521739131
 40
0.6086956521739131
 40
0.6521739130434783
 40
0.6521739130434783
 40
0.6521739130434783
 40
0.6521739130434783
 40
0.6956521739130435
 40
0.6956521739130435
 40
0.6956521739130435
 40
0.6956521739130435
 40
0.7391304347826086
 40
0.7391304347826086
 40
0.7391304347826086
 40
0.7391304347826086
 40
0.782608695652174
 40
0.782608695652174
 40
0.782608695652174
 40
0.782608695652174
 40
0.8260869565217391
 40
0.8260869565217391
 40
0.8260869565217391
 40
0.8260869565217391
 40
0.8695652173913043
 40
0.8695652173913043
 40
0.8695652173913043
 40
0.8695652173913043
 40
0.9130434782608695
 40
0.9130434782608695
 40
0.9130434782608695
 40
0.9130434782608695
 40
1.0
 40
1.0
 40
1.0
 40
1.0
 10
-26.3159
 20
6.1855
 30
0.0
 10
-26.3159
 20
6.1855
 30
0.0
 10
-26.367
 20
6.7873
 30
0.0
 10
-26.367
 20
6.7873
 30
0.0
 10
-26.367
 20
6.7873
 30
0.0
 10
-26.0737
 20
6.8319
 30
0.0
 10
-25.8542
 20
6.9351
 30
0.0
 10
-25.7065
 20
7.0969
 30
0.0
 10
-25.7065
 20
7.0969
 30
0.0
 10
-25.5588
 20
7.2599
 30
0.0
 10
-25.4849
 20
7.4554
 30
0.0
 10
-25.4849
 20
7.6846
 30
0.0
 10
-25.4849
 20
7.6846
 30
0.0
 10
-25.4849
 20
7.9606
 30
0.0
 10
-25.5892
 20
8.1941
 30
0.0
 10
-25.7967
 20
8.3842
 30
0.0
 10
-25.7967
 20
8.3842
 30
0.0
 10
-26.0052
 20
8.5754
 30
0.0
 10
-26.2812
 20
8.671
 30
0.0
 10
-26.6244
 20
8.671
 30
0.0
 10
-26.6244
 20
8.671
 30
0.0
 10
-26.9514
 20
8.671
 30
0.0
 10
-27.2089
 20
8.5798
 30
0.0
 10
-27.3979
 20
8.3962
 30
0.0
 10
-27.3979
 20
8.3962
 30
0.0
 10
-27.5869
 20
8.2126
 30
0.0
 10
-27.6814
 20
7.9725
 30
0.0
 10
-27.6814
 20
7.6749
 30
0.0
 10
-27.6814
 20
7.6749
 30
0.0
 10
-27.6814
 20
7.4902
 30
0.0
 10
-27.6391
 20
7.324
 30
0.0
 10
-27.5554
 20
7.1751
 30
0.0
 10
-27.5554
 20
7.1751
 30
0.0
 10
-27.4718
 20
7.0263
 30
0.0
 10
-27.3632
 20
6.9101
 30
0.0
 10
-27.2295
 20
6.8253
 30
0.0
 10
-27.2295
 20
6.8253
 30
0.0
 10
-27.2295
 20
6.8253
 30
0.0
 10
-27.2991
 20
6.2876
 30
0.0
 10
-27.2991
 20
6.2876
 30
0.0
 10
-27.2991
 20
6.2876
 30
0.0
 10
-27.2991
 20
6.2876
 30
0.0
 10
-29.6955
 20
6.7395
 30
0.0
 10
-29.6955
 20
6.7395
 30
0.0
 10
-29.6955
 20
6.7395
 30
0.0
 10
-29.6955
 20
6.7395
 30
0.0
 10
-29.6955
 20
9.0599
 30
0.0
 10
-29.6955
 20
9.0599
 30
0.0
 10
-29.6955
 20
9.0599
 30
0.0
 10
-29.6955
 20
9.0599
 30
0.0
 10
-29.148
 20
9.0599
 30
0.0
 10
-29.148
 20
9.0599
 30
0.0
 10
-29.148
 20
9.0599
 30
0.0
 10
-29.148
 20
9.0599
 30
0.0
 10
-29.148
 20
7.198
 30
0.0
 10
-29.148
 20
7.198
 30
0.0
 10
-29.148
 20
7.198
 30
0.0
 10
-29.148
 20
7.198
 30
0.0
 10
-27.8944
 20
6.9459
 30
0.0
 10
-27.8944
 20
6.9459
 30
0.0
 10
-27.8944
 20
6.9459
 30
0.0
 10
-28.0899
 20
7.2262
 30
0.0
 10
-28.1877
 20
7.5206
 30
0.0
 10
-28.1877
 20
7.828
 30
0.0
 10
-28.1877
 20
7.828
 30
0.0
 10
-28.1877
 20
8.2354
 30
0.0
 10
-28.0465
 20
8.5787
 30
0.0
 10
-27.764
 20
8.859
 30
0.0
 10
-27.764
 20
8.859
 30
0.0
 10
-27.4816
 20
9.1392
 30
0.0
 10
-27.1187
 20
9.2794
 30
0.0
 10
-26.6755
 20
9.2794
 30
0.0
 10
-26.6755
 20
9.2794
 30
0.0
 10
-26.2529
 20
9.2794
 30
0.0
 10
-25.8879
 20
9.1555
 30
0.0
 10
-25.5805
 20
8.91
 30
0.0
 10
-25.5805
 20
8.91
 30
0.0
 10
-25.2035
 20
8.6102
 30
0.0
 10
-25.0145
 20
8.2017
 30
0.0
 10
-25.0145
 20
7.6846
 30
0.0
 10
-25.0145
 20
7.6846
 30
0.0
 10
-25.0145
 20
7.2599
 30
0.0
 10
-25.1329
 20
6.9133
 30
0.0
 10
-25.3708
 20
6.645
 30
0.0
 10
-25.3708
 20
6.645
 30
0.0
 10
-25.6087
 20
6.3767
 30
0.0
 10
-25.9238
 20
6.2235
 30
0.0
 10
-26.3159
 20
6.1855
 30
0.0
  0
SPLINE
  5
4C
330
1F
100
AcDbEntity
  8
VRSTVA_1
 62
   250
100
AcDbSpline
210
0.0
220
0.0
230
1.0
 70
    11
 71
     3
 72
    20
 73
    16
 74
     0
 42
0.0000000001
 43
0.0000000001
 40
0.0
 40
0.0
 40
0.0
 40
0.0
 40
0.2
 40
0.2
 40
0.2
 40
0.2
 40
0.4
 40
0.4
 40
0.4
 40
0.4
 40
0.6
 40
0.6
 40
0.6
 40
0.6
 40
1.0
 40
1.0
 40
1.0
 40
1.0
 10
-24.1473
 20
-26.1943
 30
0.0
 10
-24.1473
 20
-26.1943
 30
0.0
 10
-23.3625
 20
-20.8195
 30
0.0
 10
-23.3625
 20
-20.8195
 30
0.0
 10
-23.3625
 20
-20.8195
 30
0.0
 10
-23.3625
 20
-20.8195
 30
0.0
 10
-25.0948
 20
-20.8195
 30
0.0
 10
-25.0948
 20
-20.8195
 30
0.0
 10
-25.0948
 20
-20.8195
 30
0.0
 10
-25.0948
 20
-20.8195
 30
0.0
 10
-24.1496
 20
-26.1943
 30
0.0
 10
-24.1496
 20
-26.1943
 30
0.0
 10
-24.1496
 20
-26.1943
 30
0.0
 10
-24.1496
 20
-26.1943
 30
0.0
 10
-24.1473
 20
-26.1943
 30
0.0
 10
-24.1473
 20
-26.1943
 30
0.0
  0
SPLINE
  5
4D
330
1F
100
AcDbEntity
  8
VRSTVA_1
 62
   250
100
AcDbSpline
210
0.0
220
0.0
230
1.0
 70
    11
 71
     3
 72
    20
 73
    16
 74
     0
 42
0.0000000001
 43
0.0000000001
 40
0.0
 40
0.0
 40
0.0
 40
0.0
 40
0.2
 40
0.2
 40
0.2
 40
0.2
 40
0.4
 40
0.4
 40
0.4
 40
0.4
 40
0.6
 40
0.6
 40
0.6
 40
0.6
 40
1.0
 40
1.0
 40
1.0
 40
1.0
 10
-24.1575
 20
35.501
 30
0.0
 10
-24.1575
 20
35.501
 30
0.0
 10
-24.7986
 20
31.1112
 30
0.0
 10
-24.7986
 20
31.1112
 30
0.0
 10
-24.7986
 20
31.1112
 30
0.0
 10
-24.7986
 20
31.1112
 30
0.0
 10
-23.3836
 20
31.1112
 30
0.0
 10
-23.3836
 20
31.1112
 30
0.0
 10
-23.3836
 20
31.1112
 30
0.0
 10
-23.3836
 20
31.1112
 30
0.0
 10
-24.1556
 20
35.501
 30
0.0
 10
-24.1556
 20
35.501
 30
0.0
 10
-24.1556
 20
35.501
 30
0.0
 10
-24.1556
 20
35.501
 30
0.0
 10
-24.1575
 20
35.501
 30
0.0
 10
-24.1575
 20
35.501
 30
0.0
  0
SPLINE
  5
4E
330
1F
100
AcDbEntity
  8
VRSTVA_1
 62
   250
100
AcDbSpline
210
0.0
220
0.0
230
1.0
 70
    24
 71
     3
 72
     8
 73
     4
 74
     0
 42
0.0000000001
 43
0.0000000001
 40
0.0
 40
0.0
 40
0.0
 40
0.0
 40
1.0
 40
1.0
 40
1.0
 40
1.0
 10
-24.2018
 20
34.1117
 30
0.0
 10
-24.2018
 20
34.1117
 30
0.0
 10
-24.2018
 20
-24.8201
 30
0.0
 10
-24.2018
 20
-24.8201
 30
0.0
  0
SPLINE
  5
4F
330
1F
100
AcDbEntity
  8
VRSTVA_1
 62
   250
100
AcDbSpline
210
0.0
220
0.0
230
1.0
 70
    24
 71
     3
 72
     8
 73
     4
 74
     0
 42
0.0000000001
 43
0.0000000001
 40
0.0
 40
0.0
 40
0.0
 40
0.0
 40
1.0
 40
1.0
 40
1.0
 40
1.0
 10
-6.6566
 20
-26.2933
 30
0.0
 10
-6.6566
 20
-26.2933
 30
0.0
 10
-25.6297
 20
-26.2933
 30
0.0
 10
-25.6297
 20
-26.2933
 30
0.0
  0
SPLINE
  5
50
330
1F
100
AcDbEntity
  8
VRSTVA_1
 62
   250
100
AcDbSpline
210
0.0
220
0.0
230
1.0
 70
    24
 71
     3
 72
     8
 73
     4
 74
     0
 42
0.0000000001
 43
0.0000000001
 40
0.0
 40
0.0
 40
0.0
 40
0.0
 40
1.0
 40
1.0
 40
1.0
 40
1.0
 10
-3.7004
 20
35.6885
 30
0.0
 10
-3.7004
 20
35.6885
 30
0.0
 10
-25.4685
 20
35.6885
 30
0.0
 10
-25.4685
 20
35.6885
 30
0.0
  0
SPLINE
  5
51
330
1F
100
AcDbEntity
  8
VRSTVA_1
 62
   250
100
AcDbSpline
210
0.0
220
0.0
230
1.0
 70
    11
 71
     3
 72
    84
 73
    80
 74
     0
 42
0.0000000001
 43
0.0000000001
 40
0.0
 40
0.0
 40
0.0
 40
0.0
 40
0.0476190476190476
 40
0.0476190476190476
 40
0.0476190476190476
 40
0.0476190476190476
 40
0.0952380952380952
 40
0.0952380952380952
 40
0.0952380952380952
 40
0.0952380952380952
 40
0.1428571428571428
 40
0.1428571428571428
 40
0.1428571428571428
 40
0.1428571428571428
 40
0.1904761904761905
 40
0.1904761904761905
 40
0.1904761904761905
 40
0.1904761904761905
 40
0.2380952380952381
 40
0.2380952380952381
 40
0.2380952380952381
 40
0.2380952380952381
 40
0.2857142857142857
 40
0.2857142857142857
 40
0.2857142857142857
 40
0.2857142857142857
 40
0.3333333333333333
 40
0.3333333333333333
 40
0.3333333333333333
 40
0.3333333333333333
 40
0.3809523809523809
 40
0.3809523809523809
 40
0.3809523809523809
 40
0.3809523809523809
 40
0.4285714285714285
 40
0.4285714285714285
 40
0.4285714285714285
 40
0.4285714285714285
 40
0.4761904761904762
 40
0.4761904761904762
 40
0.4761904761904762
 40
0.4761904761904762
 40
0.5238095238095238
 40
0.5238095238095238
 40
0.5238095238095238
 40
0.5238095238095238
 40
0.5714285714285714
 40
0.5714285714285714
 40
0.5714285714285714
 40
0.5714285714285714
 40
0.6190476190476191
 40
0.6190476190476191
 40
0.6190476190476191
 40
0.6190476190476191
 40
0.6666666666666666
 40
0.6666666666666666
 40
0.6666666666666666
 40
0.6666666666666666
 40
0.7142857142857143
 40
0.7142857142857143
 40
0.7142857142857143
 40
0.7142857142857143
 40
0.7619047619047619
 40
0.7619047619047619
 40
0.7619047619047619
 40
0.7619047619047619
 40
0.8095238095238095
 40
0.8095238095238095
 40
0.8095238095238095
 40
0.8095238095238095
 40
0.8571428571428571
 40
0.8571428571428571
 40
0.8571428571428571
 40
0.8571428571428571
 40
0.9047619047619048
 40
0.9047619047619048
 40
0.9047619047619048
 40
0.9047619047619048
 40
1.0
 40
1.0
 40
1.0
 40
1.0
 10
6.7753
 20
-30.4594
 30
0.0
 10
6.7753
 20
-30.4594
 30
0.0
 10
7.3098
 20
-29.8608
 30
0.0
 10
7.3098
 20
-29.8608
 30
0.0
 10
7.3098
 20
-29.8608
 30
0.0
 10
7.3098
 20
-29.8608
 30
0.0
 10
7.6248
 20
-30.1281
 30
0.0
 10
7.6248
 20
-30.1281
 30
0.0
 10
7.6248
 20
-30.1281
 30
0.0
 10
7.6248
 20
-30.1281
 30
0.0
 10
7.0653
 20
-30.7581
 30
0.0
 10
7.0653
 20
-30.7581
 30
0.0
 10
7.0653
 20
-30.7581
 30
0.0
 10
7.2478
 20
-31.0297
 30
0.0
 10
7.3706
 20
-31.2677
 30
0.0
 10
7.4347
 20
-31.4708
 30
0.0
 10
7.4347
 20
-31.4708
 30
0.0
 10
7.5194
 20
-31.7381
 30
0.0
 10
7.5618
 20
-32.0379
 30
0.0
 10
7.5618
 20
-32.3681
 30
0.0
 10
7.5618
 20
-32.3681
 30
0.0
 10
7.5618
 20
-32.8461
 30
0.0
 10
7.4651
 20
-33.272
 30
0.0
 10
7.2717
 20
-33.6446
 30
0.0
 10
7.2717
 20
-33.6446
 30
0.0
 10
7.0784
 20
-34.0183
 30
0.0
 10
6.8079
 20
-34.3008
 30
0.0
 10
6.4591
 20
-34.492
 30
0.0
 10
6.4591
 20
-34.492
 30
0.0
 10
6.1093
 20
-34.6821
 30
0.0
 10
5.7389
 20
-34.7777
 30
0.0
 10
5.3467
 20
-34.7777
 30
0.0
 10
5.3467
 20
-34.7777
 30
0.0
 10
5.0534
 20
-34.7777
 30
0.0
 10
4.7883
 20
-34.7364
 30
0.0
 10
4.5504
 20
-34.6539
 30
0.0
 10
4.5504
 20
-34.6539
 30
0.0
 10
4.3679
 20
-34.5898
 30
0.0
 10
4.155
 20
-34.4681
 30
0.0
 10
3.9105
 20
-34.2878
 30
0.0
 10
3.9105
 20
-34.2878
 30
0.0
 10
3.9105
 20
-34.2878
 30
0.0
 10
3.376
 20
-34.8863
 30
0.0
 10
3.376
 20
-34.8863
 30
0.0
 10
3.376
 20
-34.8863
 30
0.0
 10
3.376
 20
-34.8863
 30
0.0
 10
3.061
 20
-34.6191
 30
0.0
 10
3.061
 20
-34.6191
 30
0.0
 10
3.061
 20
-34.6191
 30
0.0
 10
3.061
 20
-34.6191
 30
0.0
 10
3.6216
 20
-33.9923
 30
0.0
 10
3.6216
 20
-33.9923
 30
0.0
 10
3.6216
 20
-33.9923
 30
0.0
 10
3.413
 20
-33.6761
 30
0.0
 10
3.2739
 20
-33.4056
 30
0.0
 10
3.2044
 20
-33.1818
 30
0.0
 10
3.2044
 20
-33.1818
 30
0.0
 10
3.1349
 20
-32.958
 30
0.0
 10
3.099
 20
-32.6886
 30
0.0
 10
3.099
 20
-32.3747
 30
0.0
 10
3.099
 20
-32.3747
 30
0.0
 10
3.099
 20
-31.8956
 30
0.0
 10
3.1946
 20
-31.4686
 30
0.0
 10
3.3858
 20
-31.0938
 30
0.0
 10
3.3858
 20
-31.0938
 30
0.0
 10
3.577
 20
-30.719
 30
0.0
 10
3.8443
 20
-30.4355
 30
0.0
 10
4.1897
 20
-30.2421
 30
0.0
 10
4.1897
 20
-30.2421
 30
0.0
 10
4.5341
 20
-30.0498
 30
0.0
 10
4.9176
 20
-29.9532
 30
0.0
 10
5.3402
 20
-29.9532
 30
0.0
 10
5.3402
 20
-29.9532
 30
0.0
 10
5.6248
 20
-29.9532
 30
0.0
 10
5.8736
 20
-29.9901
 30
0.0
 10
6.0865
 20
-30.0661
 30
0.0
 10
6.0865
 20
-30.0661
 30
0.0
 10
6.2994
 20
-30.1411
 30
0.0
 10
6.5298
 20
-30.2725
 30
0.0
 10
6.7753
 20
-30.4594
 30
0.0
  0
SPLINE
  5
52
330
1F
100
AcDbEntity
  8
VRSTVA_1
 62
   250
100
AcDbSpline
210
0.0
220
0.0
230
1.0
 70
    11
 71
     3
 72
    32
 73
    28
 74
     0
 42
0.0000000001
 43
0.0000000001
 40
0.0
 40
0.0
 40
0.0
 40
0.0
 40
0.125
 40
0.125
 40
0.125
 40
0.125
 40
0.25
 40
0.25
 40
0.25
 40
0.25
 40
0.375
 40
0.375
 40
0.375
 40
0.375
 40
0.5
 40
0.5
 40
0.5
 40
0.5
 40
0.625
 40
0.625
 40
0.625
 40
0.625
 40
0.75
 40
0.75
 40
0.75
 40
0.75
 40
1.0
 40
1.0
 40
1.0
 40
1.0
 10
6.394
 20
-30.8885
 30
0.0
 10
6.1941
 20
-30.7321
 30
0.0
 10
6.0192
 20
-30.6245
 30
0.0
 10
5.8703
 20
-30.5669
 30
0.0
 10
5.8703
 20
-30.5669
 30
0.0
 10
5.7204
 20
-30.5105
 30
0.0
 10
5.5444
 20
-30.4811
 30
0.0
 10
5.3434
 20
-30.4811
 30
0.0
 10
5.3434
 20
-30.4811
 30
0.0
 10
4.8785
 20
-30.4811
 30
0.0
 10
4.495
 20
-30.6386
 30
0.0
 10
4.1908
 20
-30.9537
 30
0.0
 10
4.1908
 20
-30.9537
 30
0.0
 10
3.8877
 20
-31.2687
 30
0.0
 10
3.7356
 20
-31.7391
 30
0.0
 10
3.7356
 20
-32.366
 30
0.0
 10
3.7356
 20
-32.366
 30
0.0
 10
3.7356
 20
-32.6115
 30
0.0
 10
3.7595
 20
-32.8298
 30
0.0
 10
3.8062
 20
-33.021
 30
0.0
 10
3.8062
 20
-33.021
 30
0.0
 10
3.8399
 20
-33.1634
 30
0.0
 10
3.9105
 20
-33.3383
 30
0.0
 10
4.0192
 20
-33.5458
 30
0.0
 10
4.0192
 20
-33.5458
 30
0.0
 10
4.0192
 20
-33.5458
 30
0.0
 10
6.394
 20
-30.8885
 30
0.0
 10
6.394
 20
-30.8885
 30
0.0
  0
SPLINE
  5
53
330
1F
100
AcDbEntity
  8
VRSTVA_1
 62
   250
100
AcDbSpline
210
0.0
220
0.0
230
1.0
 70
    11
 71
     3
 72
    28
 73
    24
 74
     0
 42
0.0000000001
 43
0.0000000001
 40
0.0
 40
0.0
 40
0.0
 40
0.0
 40
0.1428571428571428
 40
0.1428571428571428
 40
0.1428571428571428
 40
0.1428571428571428
 40
0.2857142857142857
 40
0.2857142857142857
 40
0.2857142857142857
 40
0.2857142857142857
 40
0.4285714285714285
 40
0.4285714285714285
 40
0.4285714285714285
 40
0.4285714285714285
 40
0.5714285714285714
 40
0.5714285714285714
 40
0.5714285714285714
 40
0.5714285714285714
 40
0.7142857142857143
 40
0.7142857142857143
 40
0.7142857142857143
 40
0.7142857142857143
 40
1.0
 40
1.0
 40
1.0
 40
1.0
 10
6.6547
 20
-31.2166
 30
0.0
 10
6.6547
 20
-31.2166
 30
0.0
 10
4.2897
 20
-33.8641
 30
0.0
 10
4.2897
 20
-33.8641
 30
0.0
 10
4.2897
 20
-33.8641
 30
0.0
 10
4.4526
 20
-33.9977
 30
0.0
 10
4.6036
 20
-34.0911
 30
0.0
 10
4.7416
 20
-34.1444
 30
0.0
 10
4.7416
 20
-34.1444
 30
0.0
 10
4.9219
 20
-34.215
 30
0.0
 10
5.1175
 20
-34.2497
 30
0.0
 10
5.3271
 20
-34.2497
 30
0.0
 10
5.3271
 20
-34.2497
 30
0.0
 10
5.7899
 20
-34.2497
 30
0.0
 10
6.1713
 20
-34.0868
 30
0.0
 10
6.4733
 20
-33.7598
 30
0.0
 10
6.4733
 20
-33.7598
 30
0.0
 10
6.7742
 20
-33.4328
 30
0.0
 10
6.9252
 20
-32.9743
 30
0.0
 10
6.9252
 20
-32.3844
 30
0.0
 10
6.9252
 20
-32.3844
 30
0.0
 10
6.9252
 20
-31.9434
 30
0.0
 10
6.835
 20
-31.5534
 30
0.0
 10
6.6547
 20
-31.2166
 30
0.0
  0
SPLINE
  5
54
330
1F
100
AcDbEntity
  8
VRSTVA_1
 62
   250
100
AcDbSpline
210
0.0
220
0.0
230
1.0
 70
    11
 71
     3
 72
    48
 73
    44
 74
     0
 42
0.0000000001
 43
0.0000000001
 40
0.0
 40
0.0
 40
0.0
 40
0.0
 40
0.0833333333333333
 40
0.0833333333333333
 40
0.0833333333333333
 40
0.0833333333333333
 40
0.1666666666666667
 40
0.1666666666666667
 40
0.1666666666666667
 40
0.1666666666666667
 40
0.25
 40
0.25
 40
0.25
 40
0.25
 40
0.3333333333333333
 40
0.3333333333333333
 40
0.3333333333333333
 40
0.3333333333333333
 40
0.4166666666666667
 40
0.4166666666666667
 40
0.4166666666666667
 40
0.4166666666666667
 40
0.5
 40
0.5
 40
0.5
 40
0.5
 40
0.5833333333333334
 40
0.5833333333333334
 40
0.5833333333333334
 40
0.5833333333333334
 40
0.6666666666666666
 40
0.6666666666666666
 40
0.6666666666666666
 40
0.6666666666666666
 40
0.75
 40
0.75
 40
0.75
 40
0.75
 40
0.8333333333333334
 40
0.8333333333333334
 40
0.8333333333333334
 40
0.8333333333333334
 40
1.0
 40
1.0
 40
1.0
 40
1.0
 10
9.9736
 20
-34.6984
 30
0.0
 10
9.9736
 20
-34.6984
 30
0.0
 10
9.9736
 20
-33.5816
 30
0.0
 10
9.9736
 20
-33.5816
 30
0.0
 10
9.9736
 20
-33.5816
 30
0.0
 10
9.9736
 20
-33.5816
 30
0.0
 10
7.9497
 20
-33.5816
 30
0.0
 10
7.9497
 20
-33.5816
 30
0.0
 10
7.9497
 20
-33.5816
 30
0.0
 10
7.9497
 20
-33.5816
 30
0.0
 10
7.9497
 20
-33.0558
 30
0.0
 10
7.9497
 20
-33.0558
 30
0.0
 10
7.9497
 20
-33.0558
 30
0.0
 10
7.9497
 20
-33.0558
 30
0.0
 10
10.0789
 20
-30.0325
 30
0.0
 10
10.0789
 20
-30.0325
 30
0.0
 10
10.0789
 20
-30.0325
 30
0.0
 10
10.0789
 20
-30.0325
 30
0.0
 10
10.5472
 20
-30.0325
 30
0.0
 10
10.5472
 20
-30.0325
 30
0.0
 10
10.5472
 20
-30.0325
 30
0.0
 10
10.5472
 20
-30.0325
 30
0.0
 10
10.5472
 20
-33.0558
 30
0.0
 10
10.5472
 20
-33.0558
 30
0.0
 10
10.5472
 20
-33.0558
 30
0.0
 10
10.5472
 20
-33.0558
 30
0.0
 10
11.1773
 20
-33.0558
 30
0.0
 10
11.1773
 20
-33.0558
 30
0.0
 10
11.1773
 20
-33.0558
 30
0.0
 10
11.1773
 20
-33.0558
 30
0.0
 10
11.1773
 20
-33.5816
 30
0.0
 10
11.1773
 20
-33.5816
 30
0.0
 10
11.1773
 20
-33.5816
 30
0.0
 10
11.1773
 20
-33.5816
 30
0.0
 10
10.5472
 20
-33.5816
 30
0.0
 10
10.5472
 20
-33.5816
 30
0.0
 10
10.5472
 20
-33.5816
 30
0.0
 10
10.5472
 20
-33.5816
 30
0.0
 10
10.5472
 20
-34.6984
 30
0.0
 10
10.5472
 20
-34.6984
 30
0.0
 10
10.5472
 20
-34.6984
 30
0.0
 10
10.5472
 20
-34.6984
 30
0.0
 10
9.9736
 20
-34.6984
 30
0.0
 10
9.9736
 20
-34.6984
 30
0.0
  0
SPLINE
  5
55
330
1F
100
AcDbEntity
  8
VRSTVA_1
 62
   250
100
AcDbSpline
210
0.0
220
0.0
230
1.0
 70
    11
 71
     3
 72
    16
 73
    12
 74
     0
 42
0.0000000001
 43
0.0000000001
 40
0.0
 40
0.0
 40
0.0
 40
0.0
 40
0.25
 40
0.25
 40
0.25
 40
0.25
 40
0.5
 40
0.5
 40
0.5
 40
0.5
 40
1.0
 40
1.0
 40
1.0
 40
1.0
 10
9.9736
 20
-33.0558
 30
0.0
 10
9.9736
 20
-33.0558
 30
0.0
 10
9.9736
 20
-30.9526
 30
0.0
 10
9.9736
 20
-30.9526
 30
0.0
 10
9.9736
 20
-30.9526
 30
0.0
 10
9.9736
 20
-30.9526
 30
0.0
 10
8.5135
 20
-33.0558
 30
0.0
 10
8.5135
 20
-33.0558
 30
0.0
 10
8.5135
 20
-33.0558
 30
0.0
 10
8.5135
 20
-33.0558
 30
0.0
 10
9.9736
 20
-33.0558
 30
0.0
 10
9.9736
 20
-33.0558
 30
0.0
  0
SPLINE
  5
56
330
1F
100
AcDbEntity
  8
VRSTVA_1
 62
   250
100
AcDbSpline
210
0.0
220
0.0
230
1.0
 70
    11
 71
     3
 72
    52
 73
    48
 74
     0
 42
0.0000000001
 43
0.0000000001
 40
0.0
 40
0.0
 40
0.0
 40
0.0
 40
0.0769230769230769
 40
0.0769230769230769
 40
0.0769230769230769
 40
0.0769230769230769
 40
0.1538461538461539
 40
0.1538461538461539
 40
0.1538461538461539
 40
0.1538461538461539
 40
0.2307692307692308
 40
0.2307692307692308
 40
0.2307692307692308
 40
0.2307692307692308
 40
0.3076923076923077
 40
0.3076923076923077
 40
0.3076923076923077
 40
0.3076923076923077
 40
0.3846153846153846
 40
0.3846153846153846
 40
0.3846153846153846
 40
0.3846153846153846
 40
0.4615384615384616
 40
0.4615384615384616
 40
0.4615384615384616
 40
0.4615384615384616
 40
0.5384615384615384
 40
0.5384615384615384
 40
0.5384615384615384
 40
0.5384615384615384
 40
0.6153846153846154
 40
0.6153846153846154
 40
0.6153846153846154
 40
0.6153846153846154
 40
0.6923076923076923
 40
0.6923076923076923
 40
0.6923076923076923
 40
0.6923076923076923
 40
0.7692307692307693
 40
0.7692307692307693
 40
0.7692307692307693
 40
0.7692307692307693
 40
0.8461538461538461
 40
0.8461538461538461
 40
0.8461538461538461
 40
0.8461538461538461
 40
1.0
 40
1.0
 40
1.0
 40
1.0
 10
11.7628
 20
-32.3975
 30
0.0
 10
11.7628
 20
-31.8456
 30
0.0
 10
11.8193
 20
-31.4013
 30
0.0
 10
11.9334
 20
-31.0656
 30
0.0
 10
11.9334
 20
-31.0656
 30
0.0
 10
12.0463
 20
-30.7288
 30
0.0
 10
12.2158
 20
-30.4692
 30
0.0
 10
12.4396
 20
-30.2867
 30
0.0
 10
12.4396
 20
-30.2867
 30
0.0
 10
12.6634
 20
-30.1042
 30
0.0
 10
12.9448
 20
-30.0129
 30
0.0
 10
13.2837
 20
-30.0129
 30
0.0
 10
13.2837
 20
-30.0129
 30
0.0
 10
13.5347
 20
-30.0129
 30
0.0
 10
13.7541
 20
-30.064
 30
0.0
 10
13.9431
 20
-30.165
 30
0.0
 10
13.9431
 20
-30.165
 30
0.0
 10
14.1322
 20
-30.2649
 30
0.0
 10
14.2875
 20
-30.4105
 30
0.0
 10
14.4114
 20
-30.6006
 30
0.0
 10
14.4114
 20
-30.6006
 30
0.0
 10
14.5341
 20
-30.7907
 30
0.0
 10
14.6308
 20
-31.0221
 30
0.0
 10
14.7003
 20
-31.2948
 30
0.0
 10
14.7003
 20
-31.2948
 30
0.0
 10
14.771
 20
-31.5675
 30
0.0
 10
14.8057
 20
-31.9347
 30
0.0
 10
14.8057
 20
-32.3975
 30
0.0
 10
14.8057
 20
-32.3975
 30
0.0
 10
14.8057
 20
-32.945
 30
0.0
 10
14.7492
 20
-33.3861
 30
0.0
 10
14.6373
 20
-33.7228
 30
0.0
 10
14.6373
 20
-33.7228
 30
0.0
 10
14.5243
 20
-34.0596
 30
0.0
 10
14.356
 20
-34.3193
 30
0.0
 10
14.1322
 20
-34.5029
 30
0.0
 10
14.1322
 20
-34.5029
 30
0.0
 10
13.9084
 20
-34.6864
 30
0.0
 10
13.6259
 20
-34.7777
 30
0.0
 10
13.2837
 20
-34.7777
 30
0.0
 10
13.2837
 20
-34.7777
 30
0.0
 10
12.834
 20
-34.7777
 30
0.0
 10
12.4809
 20
-34.6169
 30
0.0
 10
12.2245
 20
-34.2943
 30
0.0
 10
12.2245
 20
-34.2943
 30
0.0
 10
11.9171
 20
-33.9064
 30
0.0
 10
11.7628
 20
-33.2731
 30
0.0
 10
11.7628
 20
-32.3975
 30
0.0
  0
SPLINE
  5
57
330
1F
100
AcDbEntity
  8
VRSTVA_1
 62
   250
100
AcDbSpline
210
0.0
220
0.0
230
1.0
 70
    11
 71
     3
 72
    36
 73
    32
 74
     0
 42
0.0000000001
 43
0.0000000001
 40
0.0
 40
0.0
 40
0.0
 40
0.0
 40
0.1111111111111111
 40
0.1111111111111111
 40
0.1111111111111111
 40
0.1111111111111111
 40
0.2222222222222222
 40
0.2222222222222222
 40
0.2222222222222222
 40
0.2222222222222222
 40
0.3333333333333333
 40
0.3333333333333333
 40
0.3333333333333333
 40
0.3333333333333333
 40
0.4444444444444444
 40
0.4444444444444444
 40
0.4444444444444444
 40
0.4444444444444444
 40
0.5555555555555556
 40
0.5555555555555556
 40
0.5555555555555556
 40
0.5555555555555556
 40
0.6666666666666666
 40
0.6666666666666666
 40
0.6666666666666666
 40
0.6666666666666666
 40
0.7777777777777778
 40
0.7777777777777778
 40
0.7777777777777778
 40
0.7777777777777778
 40
1.0
 40
1.0
 40
1.0
 40
1.0
 10
12.3516
 20
-32.3975
 30
0.0
 10
12.3516
 20
-33.1634
 30
0.0
 10
12.4418
 20
-33.6729
 30
0.0
 10
12.621
 20
-33.9271
 30
0.0
 10
12.621
 20
-33.9271
 30
0.0
 10
12.8003
 20
-34.1802
 30
0.0
 10
13.0208
 20
-34.3073
 30
0.0
 10
13.2837
 20
-34.3073
 30
0.0
 10
13.2837
 20
-34.3073
 30
0.0
 10
13.5477
 20
-34.3073
 30
0.0
 10
13.7682
 20
-34.1791
 30
0.0
 10
13.9475
 20
-33.9249
 30
0.0
 10
13.9475
 20
-33.9249
 30
0.0
 10
14.1267
 20
-33.6707
 30
0.0
 10
14.2169
 20
-33.1612
 30
0.0
 10
14.2169
 20
-32.3975
 30
0.0
 10
14.2169
 20
-32.3975
 30
0.0
 10
14.2169
 20
-31.6294
 30
0.0
 10
14.1267
 20
-31.1188
 30
0.0
 10
13.9475
 20
-30.8668
 30
0.0
 10
13.9475
 20
-30.8668
 30
0.0
 10
13.7682
 20
-30.6137
 30
0.0
 10
13.5455
 20
-30.4876
 30
0.0
 10
13.2783
 20
-30.4876
 30
0.0
 10
13.2783
 20
-30.4876
 30
0.0
 10
13.0143
 20
-30.4876
 30
0.0
 10
12.8046
 20
-30.5995
 30
0.0
 10
12.6471
 20
-30.8222
 30
0.0
 10
12.6471
 20
-30.8222
 30
0.0
 10
12.4505
 20
-31.1058
 30
0.0
 10
12.3516
 20
-31.6316
 30
0.0
 10
12.3516
 20
-32.3975
 30
0.0
  0
SPLINE
  5
58
330
1F
100
AcDbEntity
  8
VRSTVA_1
 62
   250
100
AcDbSpline
210
0.0
220
0.0
230
1.0
 70
    11
 71
     3
 72
    20
 73
    16
 74
     0
 42
0.0000000001
 43
0.0000000001
 40
0.0
 40
0.0
 40
0.0
 40
0.0
 40
0.2
 40
0.2
 40
0.2
 40
0.2
 40
0.4
 40
0.4
 40
0.4
 40
0.4
 40
0.6
 40
0.6
 40
0.6
 40
0.6
 40
1.0
 40
1.0
 40
1.0
 40
1.0
 10
-6.8931
 20
-35.994
 30
0.0
 10
-6.8931
 20
-35.994
 30
0.0
 10
-1.5182
 20
-36.7787
 30
0.0
 10
-1.5182
 20
-36.7787
 30
0.0
 10
-1.5182
 20
-36.7787
 30
0.0
 10
-1.5182
 20
-36.7787
 30
0.0
 10
-1.5182
 20
-35.0465
 30
0.0
 10
-1.5182
 20
-35.0465
 30
0.0
 10
-1.5182
 20
-35.0465
 30
0.0
 10
-1.5182
 20
-35.0465
 30
0.0
 10
-6.8931
 20
-35.9916
 30
0.0
 10
-6.8931
 20
-35.9916
 30
0.0
 10
-6.8931
 20
-35.9916
 30
0.0
 10
-6.8931
 20
-35.9916
 30
0.0
 10
-6.8931
 20
-35.994
 30
0.0
 10
-6.8931
 20
-35.994
 30
0.0
  0
SPLINE
  5
59
330
1F
100
AcDbEntity
  8
VRSTVA_1
 62
   250
100
AcDbSpline
210
0.0
220
0.0
230
1.0
 70
    11
 71
     3
 72
    20
 73
    16
 74
     0
 42
0.0000000001
 43
0.0000000001
 40
0.0
 40
0.0
 40
0.0
 40
0.0
 40
0.2
 40
0.2
 40
0.2
 40
0.2
 40
0.4
 40
0.4
 40
0.4
 40
0.4
 40
0.6
 40
0.6
 40
0.6
 40
0.6
 40
1.0
 40
1.0
 40
1.0
 40
1.0
 10
24.0044
 20
-36.115
 30
0.0
 10
24.0044
 20
-36.115
 30
0.0
 10
18.6296
 20
-35.3303
 30
0.0
 10
18.6296
 20
-35.3303
 30
0.0
 10
18.6296
 20
-35.3303
 30
0.0
 10
18.6296
 20
-35.3303
 30
0.0
 10
18.6296
 20
-37.0626
 30
0.0
 10
18.6296
 20
-37.0626
 30
0.0
 10
18.6296
 20
-37.0626
 30
0.0
 10
18.6296
 20
-37.0626
 30
0.0
 10
24.0044
 20
-36.1174
 30
0.0
 10
24.0044
 20
-36.1174
 30
0.0
 10
24.0044
 20
-36.1174
 30
0.0
 10
24.0044
 20
-36.1174
 30
0.0
 10
24.0044
 20
-36.115
 30
0.0
 10
24.0044
 20
-36.115
 30
0.0
  0
SPLINE
  5
5A
330
1F
100
AcDbEntity
  8
VRSTVA_1
 62
   250
100
AcDbSpline
210
0.0
220
0.0
230
1.0
 70
    24
 71
     3
 72
     8
 73
     4
 74
     0
 42
0.0000000001
 43
0.0000000001
 40
0.0
 40
0.0
 40
0.0
 40
0.0
 40
1.0
 40
1.0
 40
1.0
 40
1.0
 10
23.0059
 20
-36.1236
 30
0.0
 10
23.0059
 20
-36.1236
 30
0.0
 10
-5.4923
 20
-36.1236
 30
0.0
 10
-5.4923
 20
-36.1236
 30
0.0
  0
SPLINE
  5
5B
330
1F
100
AcDbEntity
  8
VRSTVA_1
 62
   250
100
AcDbSpline
210
0.0
220
0.0
230
1.0
 70
    24
 71
     3
 72
     8
 73
     4
 74
     0
 42
0.0000000001
 43
0.0000000001
 40
0.0
 40
0.0
 40
0.0
 40
0.0
 40
1.0
 40
1.0
 40
1.0
 40
1.0
 10
-7.0279
 20
-36.5282
 30
0.0
 10
-7.0279
 20
-36.5282
 30
0.0
 10
-7.0279
 20
-23.6304
 30
0.0
 10
-7.0279
 20
-23.6304
 30
0.0
  0
SPLINE
  5
5C
330
1F
100
AcDbEntity
  8
VRSTVA_1
 62
   250
100
AcDbSpline
210
0.0
220
0.0
230
1.0
 70
    24
 71
     3
 72
     8
 73
     4
 74
     0
 42
0.0000000001
 43
0.0000000001
 40
0.0
 40
0.0
 40
0.0
 40
0.0
 40
1.0
 40
1.0
 40
1.0
 40
1.0
 10
24.0233
 20
-23.5015
 30
0.0
 10
24.0233
 20
-23.5015
 30
0.0
 10
24.0233
 20
-36.4709
 30
0.0
 10
24.0233
 20
-36.4709
 30
0.0
  0
SPLINE
  5
5D
330
1F
100
AcDbEntity
  8
VRSTVA_1
  6
NEW_LINE1
 62
   250
100
AcDbSpline
210
0.0
220
0.0
230
1.0
 70
    24
 71
     3
 72
     8
 73
     4
 74
     0
 42
0.0000000001
 43
0.0000000001
 40
0.0
 40
0.0
 40
0.0
 40
0.0
 40
1.0
 40
1.0
 40
1.0
 40
1.0
 10
8.393
 20
-27.2099
 30
0.0
 10
8.393
 20
-27.2099
 30
0.0
 10
8.393
 20
37.0625
 30
0.0
 10
8.393
 20
37.0625
 30
0.0
  0
SPLINE
  5
5F
330
1F
100
AcDbEntity
  8
VRSTVA_1
 62
   250
100
AcDbSpline
210
0.0
220
0.0
230
1.0
 70
    11
 71
     3
 72
   124
 73
   120
 74
     0
 42
0.0000000001
 43
0.0000000001
 40
0.0
 40
0.0
 40
0.0
 40
0.0
 40
0.032258064516129
 40
0.032258064516129
 40
0.032258064516129
 40
0.032258064516129
 40
0.0645161290322581
 40
0.0645161290322581
 40
0.0645161290322581
 40
0.0645161290322581
 40
0.0967741935483871
 40
0.0967741935483871
 40
0.0967741935483871
 40
0.0967741935483871
 40
0.1290322580645161
 40
0.1290322580645161
 40
0.1290322580645161
 40
0.1290322580645161
 40
0.1612903225806452
 40
0.1612903225806452
 40
0.1612903225806452
 40
0.1612903225806452
 40
0.1935483870967742
 40
0.1935483870967742
 40
0.1935483870967742
 40
0.1935483870967742
 40
0.2258064516129032
 40
0.2258064516129032
 40
0.2258064516129032
 40
0.2258064516129032
 40
0.2580645161290323
 40
0.2580645161290323
 40
0.2580645161290323
 40
0.2580645161290323
 40
0.2903225806451613
 40
0.2903225806451613
 40
0.2903225806451613
 40
0.2903225806451613
 40
0.3225806451612903
 40
0.3225806451612903
 40
0.3225806451612903
 40
0.3225806451612903
 40
0.3548387096774194
 40
0.3548387096774194
 40
0.3548387096774194
 40
0.3548387096774194
 40
0.3870967741935484
 40
0.3870967741935484
 40
0.3870967741935484
 40
0.3870967741935484
 40
0.4193548387096774
 40
0.4193548387096774
 40
0.4193548387096774
 40
0.4193548387096774
 40
0.4516129032258064
 40
0.4516129032258064
 40
0.4516129032258064
 40
0.4516129032258064
 40
0.4838709677419355
 40
0.4838709677419355
 40
0.4838709677419355
 40
0.4838709677419355
 40
0.5161290322580645
 40
0.5161290322580645
 40
0.5161290322580645
 40
0.5161290322580645
 40
0.5483870967741935
 40
0.5483870967741935
 40
0.5483870967741935
 40
0.5483870967741935
 40
0.5806451612903226
 40
0.5806451612903226
 40
0.5806451612903226
 40
0.5806451612903226
 40
0.6129032258064516
 40
0.6129032258064516
 40
0.6129032258064516
 40
0.6129032258064516
 40
0.6451612903225806
 40
0.6451612903225806
 40
0.6451612903225806
 40
0.6451612903225806
 40
0.6774193548387096
 40
0.6774193548387096
 40
0.6774193548387096
 40
0.6774193548387096
 40
0.7096774193548387
 40
0.7096774193548387
 40
0.7096774193548387
 40
0.7096774193548387
 40
0.7419354838709677
 40
0.7419354838709677
 40
0.7419354838709677
 40
0.7419354838709677
 40
0.7741935483870968
 40
0.7741935483870968
 40
0.7741935483870968
 40
0.7741935483870968
 40
0.8064516129032258
 40
0.8064516129032258
 40
0.8064516129032258
 40
0.8064516129032258
 40
0.8387096774193549
 40
0.8387096774193549
 40
0.8387096774193549
 40
0.8387096774193549
 40
0.8709677419354839
 40
0.8709677419354839
 40
0.8709677419354839
 40
0.8709677419354839
 40
0.9032258064516129
 40
0.9032258064516129
 40
0.9032258064516129
 40
0.9032258064516129
 40
0.9354838709677419
 40
0.9354838709677419
 40
0.9354838709677419
 40
0.9354838709677419
 40
1.0
 40
1.0
 40
1.0
 40
1.0
 10
-17.726
 20
-14.636
 30
0.0
 10
-17.726
 20
-14.636
 30
0.0
 10
-17.8021
 20
-14.0635
 30
0.0
 10
-17.8021
 20
-14.0635
 30
0.0
 10
-17.8021
 20
-14.0635
 30
0.0
 10
-17.4773
 20
-13.9973
 30
0.0
 10
-17.2437
 20
-13.8854
 30
0.0
 10
-17.1003
 20
-13.7278
 30
0.0
 10
-17.1003
 20
-13.7278
 30
0.0
 10
-16.9569
 20
-13.5692
 30
0.0
 10
-16.8852
 20
-13.3769
 30
0.0
 10
-16.8852
 20
-13.1499
 30
0.0
 10
-16.8852
 20
-13.1499
 30
0.0
 10
-16.8852
 20
-12.8805
 30
0.0
 10
-16.9786
 20
-12.6523
 30
0.0
 10
-17.1655
 20
-12.4666
 30
0.0
 10
-17.1655
 20
-12.4666
 30
0.0
 10
-17.3523
 20
-12.2819
 30
0.0
 10
-17.5837
 20
-12.1885
 30
0.0
 10
-17.8597
 20
-12.1885
 30
0.0
 10
-17.8597
 20
-12.1885
 30
0.0
 10
-18.1226
 20
-12.1885
 30
0.0
 10
-18.3398
 20
-12.2743
 30
0.0
 10
-18.5104
 20
-12.4459
 30
0.0
 10
-18.5104
 20
-12.4459
 30
0.0
 10
-18.681
 20
-12.6187
 30
0.0
 10
-18.7668
 20
-12.837
 30
0.0
 10
-18.7668
 20
-13.1021
 30
0.0
 10
-18.7668
 20
-13.1021
 30
0.0
 10
-18.7668
 20
-13.2107
 30
0.0
 10
-18.7451
 20
-13.3454
 30
0.0
 10
-18.7027
 20
-13.5062
 30
0.0
 10
-18.7027
 20
-13.5062
 30
0.0
 10
-18.7027
 20
-13.5062
 30
0.0
 10
-19.2057
 20
-13.4421
 30
0.0
 10
-19.2057
 20
-13.4421
 30
0.0
 10
-19.2057
 20
-13.4421
 30
0.0
 10
-19.2013
 20
-13.4041
 30
0.0
 10
-19.1992
 20
-13.3737
 30
0.0
 10
-19.1992
 20
-13.3498
 30
0.0
 10
-19.1992
 20
-13.3498
 30
0.0
 10
-19.1992
 20
-13.1064
 30
0.0
 10
-19.2632
 20
-12.887
 30
0.0
 10
-19.3904
 20
-12.6914
 30
0.0
 10
-19.3904
 20
-12.6914
 30
0.0
 10
-19.5175
 20
-12.4959
 30
0.0
 10
-19.7141
 20
-12.3981
 30
0.0
 10
-19.9792
 20
-12.3981
 30
0.0
 10
-19.9792
 20
-12.3981
 30
0.0
 10
-20.1888
 20
-12.3981
 30
0.0
 10
-20.3637
 20
-12.4698
 30
0.0
 10
-20.5006
 20
-12.6121
 30
0.0
 10
-20.5006
 20
-12.6121
 30
0.0
 10
-20.6386
 20
-12.7544
 30
0.0
 10
-20.7081
 20
-12.938
 30
0.0
 10
-20.7081
 20
-13.1629
 30
0.0
 10
-20.7081
 20
-13.1629
 30
0.0
 10
-20.7081
 20
-13.3856
 30
0.0
 10
-20.6375
 20
-13.5714
 30
0.0
 10
-20.4984
 20
-13.7191
 30
0.0
 10
-20.4984
 20
-13.7191
 30
0.0
 10
-20.3583
 20
-13.868
 30
0.0
 10
-20.1476
 20
-13.9636
 30
0.0
 10
-19.8673
 20
-14.0059
 30
0.0
 10
-19.8673
 20
-14.0059
 30
0.0
 10
-19.8673
 20
-14.0059
 30
0.0
 10
-19.9694
 20
-14.5785
 30
0.0
 10
-19.9694
 20
-14.5785
 30
0.0
 10
-19.9694
 20
-14.5785
 30
0.0
 10
-20.354
 20
-14.5089
 30
0.0
 10
-20.6516
 20
-14.3492
 30
0.0
 10
-20.8624
 20
-14.1015
 30
0.0
 10
-20.8624
 20
-14.1015
 30
0.0
 10
-21.0731
 20
-13.8528
 30
0.0
 10
-21.1796
 20
-13.5442
 30
0.0
 10
-21.1796
 20
-13.1749
 30
0.0
 10
-21.1796
 20
-13.1749
 30
0.0
 10
-21.1796
 20
-12.9207
 30
0.0
 10
-21.1242
 20
-12.686
 30
0.0
 10
-21.0156
 20
-12.472
 30
0.0
 10
-21.0156
 20
-12.472
 30
0.0
 10
-20.9058
 20
-12.258
 30
0.0
 10
-20.757
 20
-12.0939
 30
0.0
 10
-20.568
 20
-11.9799
 30
0.0
 10
-20.568
 20
-11.9799
 30
0.0
 10
-20.3789
 20
-11.8669
 30
0.0
 10
-20.1791
 20
-11.8093
 30
0.0
 10
-19.9661
 20
-11.8093
 30
0.0
 10
-19.9661
 20
-11.8093
 30
0.0
 10
-19.7652
 20
-11.8093
 30
0.0
 10
-19.5816
 20
-11.8636
 30
0.0
 10
-19.4153
 20
-11.9723
 30
0.0
 10
-19.4153
 20
-11.9723
 30
0.0
 10
-19.2502
 20
-12.0809
 30
0.0
 10
-19.1188
 20
-12.2406
 30
0.0
 10
-19.021
 20
-12.4524
 30
0.0
 10
-19.021
 20
-12.4524
 30
0.0
 10
-18.958
 20
-12.1765
 30
0.0
 10
-18.8254
 20
-11.9625
 30
0.0
 10
-18.6245
 20
-11.8093
 30
0.0
 10
-18.6245
 20
-11.8093
 30
0.0
 10
-18.4246
 20
-11.6572
 30
0.0
 10
-18.1736
 20
-11.5812
 30
0.0
 10
-17.8727
 20
-11.5812
 30
0.0
 10
-17.8727
 20
-11.5812
 30
0.0
 10
-17.4653
 20
-11.5812
 30
0.0
 10
-17.1198
 20
-11.7289
 30
0.0
 10
-16.8363
 20
-12.0266
 30
0.0
 10
-16.8363
 20
-12.0266
 30
0.0
 10
-16.5528
 20
-12.3232
 30
0.0
 10
-16.4115
 20
-12.699
 30
0.0
 10
-16.4115
 20
-13.1531
 30
0.0
 10
-16.4115
 20
-13.1531
 30
0.0
 10
-16.4115
 20
-13.5627
 30
0.0
 10
-16.5332
 20
-13.9027
 30
0.0
 10
-16.7776
 20
-14.1732
 30
0.0
 10
-16.7776
 20
-14.1732
 30
0.0
 10
-17.021
 20
-14.4437
 30
0.0
 10
-17.3371
 20
-14.598
 30
0.0
 10
-17.726
 20
-14.636
 30
0.0
  0
SPLINE
  5
60
330
1F
100
AcDbEntity
  8
VRSTVA_1
 62
   250
100
AcDbSpline
210
0.0
220
0.0
230
1.0
 70
    11
 71
     3
 72
    68
 73
    64
 74
     0
 42
0.0000000001
 43
0.0000000001
 40
0.0
 40
0.0
 40
0.0
 40
0.0
 40
0.0588235294117647
 40
0.0588235294117647
 40
0.0588235294117647
 40
0.0588235294117647
 40
0.1176470588235294
 40
0.1176470588235294
 40
0.1176470588235294
 40
0.1176470588235294
 40
0.1764705882352941
 40
0.1764705882352941
 40
0.1764705882352941
 40
0.1764705882352941
 40
0.2352941176470588
 40
0.2352941176470588
 40
0.2352941176470588
 40
0.2352941176470588
 40
0.2941176470588235
 40
0.2941176470588235
 40
0.2941176470588235
 40
0.2941176470588235
 40
0.3529411764705883
 40
0.3529411764705883
 40
0.3529411764705883
 40
0.3529411764705883
 40
0.4117647058823529
 40
0.4117647058823529
 40
0.4117647058823529
 40
0.4117647058823529
 40
0.4705882352941176
 40
0.4705882352941176
 40
0.4705882352941176
 40
0.4705882352941176
 40
0.5294117647058824
 40
0.5294117647058824
 40
0.5294117647058824
 40
0.5294117647058824
 40
0.5882352941176471
 40
0.5882352941176471
 40
0.5882352941176471
 40
0.5882352941176471
 40
0.6470588235294118
 40
0.6470588235294118
 40
0.6470588235294118
 40
0.6470588235294118
 40
0.7058823529411765
 40
0.7058823529411765
 40
0.7058823529411765
 40
0.7058823529411765
 40
0.7647058823529411
 40
0.7647058823529411
 40
0.7647058823529411
 40
0.7647058823529411
 40
0.8235294117647058
 40
0.8235294117647058
 40
0.8235294117647058
 40
0.8235294117647058
 40
0.8823529411764706
 40
0.8823529411764706
 40
0.8823529411764706
 40
0.8823529411764706
 40
1.0
 40
1.0
 40
1.0
 40
1.0
 10
-19.0242
 20
-10.132
 30
0.0
 10
-19.1112
 20
-10.3699
 30
0.0
 10
-19.235
 20
-10.5459
 30
0.0
 10
-19.3969
 20
-10.661
 30
0.0
 10
-19.3969
 20
-10.661
 30
0.0
 10
-19.5577
 20
-10.7751
 30
0.0
 10
-19.751
 20
-10.8327
 30
0.0
 10
-19.9759
 20
-10.8327
 30
0.0
 10
-19.9759
 20
-10.8327
 30
0.0
 10
-20.3159
 20
-10.8327
 30
0.0
 10
-20.6006
 20
-10.711
 30
0.0
 10
-20.832
 20
-10.4666
 30
0.0
 10
-20.832
 20
-10.4666
 30
0.0
 10
-21.0634
 20
-10.2221
 30
0.0
 10
-21.1796
 20
-9.8984
 30
0.0
 10
-21.1796
 20
-9.4932
 30
0.0
 10
-21.1796
 20
-9.4932
 30
0.0
 10
-21.1796
 20
-9.0858
 30
0.0
 10
-21.0612
 20
-8.7577
 30
0.0
 10
-20.8244
 20
-8.5089
 30
0.0
 10
-20.8244
 20
-8.5089
 30
0.0
 10
-20.5875
 20
-8.2612
 30
0.0
 10
-20.2996
 20
-8.1374
 30
0.0
 10
-19.9596
 20
-8.1374
 30
0.0
 10
-19.9596
 20
-8.1374
 30
0.0
 10
-19.7434
 20
-8.1374
 30
0.0
 10
-19.5555
 20
-8.1939
 30
0.0
 10
-19.3947
 20
-8.3069
 30
0.0
 10
-19.3947
 20
-8.3069
 30
0.0
 10
-19.235
 20
-8.4209
 30
0.0
 10
-19.1112
 20
-8.5926
 30
0.0
 10
-19.0242
 20
-8.824
 30
0.0
 10
-19.0242
 20
-8.824
 30
0.0
 10
-18.9308
 20
-8.5383
 30
0.0
 10
-18.7809
 20
-8.3199
 30
0.0
 10
-18.5723
 20
-8.17
 30
0.0
 10
-18.5723
 20
-8.17
 30
0.0
 10
-18.3648
 20
-8.0212
 30
0.0
 10
-18.116
 20
-7.9462
 30
0.0
 10
-17.8282
 20
-7.9462
 30
0.0
 10
-17.8282
 20
-7.9462
 30
0.0
 10
-17.4284
 20
-7.9462
 30
0.0
 10
-17.0938
 20
-8.0874
 30
0.0
 10
-16.8222
 20
-8.3688
 30
0.0
 10
-16.8222
 20
-8.3688
 30
0.0
 10
-16.5506
 20
-8.6512
 30
0.0
 10
-16.4148
 20
-9.0228
 30
0.0
 10
-16.4148
 20
-9.4834
 30
0.0
 10
-16.4148
 20
-9.4834
 30
0.0
 10
-16.4148
 20
-9.944
 30
0.0
 10
-16.5506
 20
-10.3145
 30
0.0
 10
-16.8233
 20
-10.5969
 30
0.0
 10
-16.8233
 20
-10.5969
 30
0.0
 10
-17.0959
 20
-10.8794
 30
0.0
 10
-17.436
 20
-11.0206
 30
0.0
 10
-17.8434
 20
-11.0206
 30
0.0
 10
-17.8434
 20
-11.0206
 30
0.0
 10
-18.1465
 20
-11.0206
 30
0.0
 10
-18.4007
 20
-10.9435
 30
0.0
 10
-18.606
 20
-10.7892
 30
0.0
 10
-18.606
 20
-10.7892
 30
0.0
 10
-18.8102
 20
-10.636
 30
0.0
 10
-18.9504
 20
-10.4166
 30
0.0
 10
-19.0242
 20
-10.132
 30
0.0
  0
SPLINE
  5
61
330
1F
100
AcDbEntity
  8
VRSTVA_1
 62
   250
100
AcDbSpline
210
0.0
220
0.0
230
1.0
 70
    11
 71
     3
 72
    36
 73
    32
 74
     0
 42
0.0000000001
 43
0.0000000001
 40
0.0
 40
0.0
 40
0.0
 40
0.0
 40
0.1111111111111111
 40
0.1111111111111111
 40
0.1111111111111111
 40
0.1111111111111111
 40
0.2222222222222222
 40
0.2222222222222222
 40
0.2222222222222222
 40
0.2222222222222222
 40
0.3333333333333333
 40
0.3333333333333333
 40
0.3333333333333333
 40
0.3333333333333333
 40
0.4444444444444444
 40
0.4444444444444444
 40
0.4444444444444444
 40
0.4444444444444444
 40
0.5555555555555556
 40
0.5555555555555556
 40
0.5555555555555556
 40
0.5555555555555556
 40
0.6666666666666666
 40
0.6666666666666666
 40
0.6666666666666666
 40
0.6666666666666666
 40
0.7777777777777778
 40
0.7777777777777778
 40
0.7777777777777778
 40
0.7777777777777778
 40
1.0
 40
1.0
 40
1.0
 40
1.0
 10
-19.9955
 20
-10.2471
 30
0.0
 10
-19.7749
 20
-10.2471
 30
0.0
 10
-19.5946
 20
-10.1754
 30
0.0
 10
-19.4544
 20
-10.0342
 30
0.0
 10
-19.4544
 20
-10.0342
 30
0.0
 10
-19.3143
 20
-9.8919
 30
0.0
 10
-19.2437
 20
-9.7072
 30
0.0
 10
-19.2437
 20
-9.4801
 30
0.0
 10
-19.2437
 20
-9.4801
 30
0.0
 10
-19.2437
 20
-9.2596
 30
0.0
 10
-19.3132
 20
-9.0782
 30
0.0
 10
-19.4523
 20
-8.937
 30
0.0
 10
-19.4523
 20
-8.937
 30
0.0
 10
-19.5913
 20
-8.7957
 30
0.0
 10
-19.7619
 20
-8.7262
 30
0.0
 10
-19.9629
 20
-8.7262
 30
0.0
 10
-19.9629
 20
-8.7262
 30
0.0
 10
-20.1736
 20
-8.7262
 30
0.0
 10
-20.3496
 20
-8.7979
 30
0.0
 10
-20.493
 20
-8.9435
 30
0.0
 10
-20.493
 20
-8.9435
 30
0.0
 10
-20.6364
 20
-9.0891
 30
0.0
 10
-20.7081
 20
-9.2694
 30
0.0
 10
-20.7081
 20
-9.4867
 30
0.0
 10
-20.7081
 20
-9.4867
 30
0.0
 10
-20.7081
 20
-9.705
 30
0.0
 10
-20.6375
 20
-9.8864
 30
0.0
 10
-20.4984
 20
-10.0309
 30
0.0
 10
-20.4984
 20
-10.0309
 30
0.0
 10
-20.3583
 20
-10.1754
 30
0.0
 10
-20.1899
 20
-10.2471
 30
0.0
 10
-19.9955
 20
-10.2471
 30
0.0
  0
SPLINE
  5
62
330
1F
100
AcDbEntity
  8
VRSTVA_1
 62
   250
100
AcDbSpline
210
0.0
220
0.0
230
1.0
 70
    11
 71
     3
 72
    40
 73
    36
 74
     0
 42
0.0000000001
 43
0.0000000001
 40
0.0
 40
0.0
 40
0.0
 40
0.0
 40
0.1
 40
0.1
 40
0.1
 40
0.1
 40
0.2
 40
0.2
 40
0.2
 40
0.2
 40
0.3
 40
0.3
 40
0.3
 40
0.3
 40
0.4
 40
0.4
 40
0.4
 40
0.4
 40
0.5
 40
0.5
 40
0.5
 40
0.5
 40
0.6
 40
0.6
 40
0.6
 40
0.6
 40
0.7
 40
0.7
 40
0.7
 40
0.7
 40
0.8
 40
0.8
 40
0.8
 40
0.8
 40
1.0
 40
1.0
 40
1.0
 40
1.0
 10
-17.8401
 20
-10.4318
 30
0.0
 10
-17.6772
 20
-10.4318
 30
0.0
 10
-17.5185
 20
-10.3927
 30
0.0
 10
-17.3665
 20
-10.3156
 30
0.0
 10
-17.3665
 20
-10.3156
 30
0.0
 10
-17.2133
 20
-10.2384
 30
0.0
 10
-17.0949
 20
-10.1233
 30
0.0
 10
-17.0112
 20
-9.9701
 30
0.0
 10
-17.0112
 20
-9.9701
 30
0.0
 10
-16.9276
 20
-9.8169
 30
0.0
 10
-16.8852
 20
-9.6529
 30
0.0
 10
-16.8852
 20
-9.4769
 30
0.0
 10
-16.8852
 20
-9.4769
 30
0.0
 10
-16.8852
 20
-9.2031
 30
0.0
 10
-16.9732
 20
-8.9772
 30
0.0
 10
-17.1503
 20
-8.799
 30
0.0
 10
-17.1503
 20
-8.799
 30
0.0
 10
-17.3263
 20
-8.6208
 30
0.0
 10
-17.55
 20
-8.5317
 30
0.0
 10
-17.8216
 20
-8.5317
 30
0.0
 10
-17.8216
 20
-8.5317
 30
0.0
 10
-18.0976
 20
-8.5317
 30
0.0
 10
-18.3257
 20
-8.623
 30
0.0
 10
-18.5061
 20
-8.8066
 30
0.0
 10
-18.5061
 20
-8.8066
 30
0.0
 10
-18.6864
 20
-8.9902
 30
0.0
 10
-18.7766
 20
-9.2205
 30
0.0
 10
-18.7766
 20
-9.4964
 30
0.0
 10
-18.7766
 20
-9.4964
 30
0.0
 10
-18.7766
 20
-9.7659
 30
0.0
 10
-18.6875
 20
-9.9886
 30
0.0
 10
-18.5093
 20
-10.1656
 30
0.0
 10
-18.5093
 20
-10.1656
 30
0.0
 10
-18.3301
 20
-10.3427
 30
0.0
 10
-18.1074
 20
-10.4318
 30
0.0
 10
-17.8401
 20
-10.4318
 30
0.0
  0
SPLINE
  5
63
330
1F
100
AcDbEntity
  8
VRSTVA_1
 62
   250
100
AcDbSpline
210
0.0
220
0.0
230
1.0
 70
    11
 71
     3
 72
    20
 73
    16
 74
     0
 42
0.0000000001
 43
0.0000000001
 40
0.0
 40
0.0
 40
0.0
 40
0.0
 40
0.2
 40
0.2
 40
0.2
 40
0.2
 40
0.4
 40
0.4
 40
0.4
 40
0.4
 40
0.6
 40
0.6
 40
0.6
 40
0.6
 40
1.0
 40
1.0
 40
1.0
 40
1.0
 10
-15.5207
 20
-26.1027
 30
0.0
 10
-15.5207
 20
-26.1027
 30
0.0
 10
-14.736
 20
-20.7279
 30
0.0
 10
-14.736
 20
-20.7279
 30
0.0
 10
-14.736
 20
-20.7279
 30
0.0
 10
-14.736
 20
-20.7279
 30
0.0
 10
-16.4682
 20
-20.7279
 30
0.0
 10
-16.4682
 20
-20.7279
 30
0.0
 10
-16.4682
 20
-20.7279
 30
0.0
 10
-16.4682
 20
-20.7279
 30
0.0
 10
-15.5231
 20
-26.1027
 30
0.0
 10
-15.5231
 20
-26.1027
 30
0.0
 10
-15.5231
 20
-26.1027
 30
0.0
 10
-15.5231
 20
-26.1027
 30
0.0
 10
-15.5207
 20
-26.1027
 30
0.0
 10
-15.5207
 20
-26.1027
 30
0.0
  0
SPLINE
  5
64
330
1F
100
AcDbEntity
  8
VRSTVA_1
 62
   250
100
AcDbSpline
210
0.0
220
0.0
230
1.0
 70
    11
 71
     3
 72
    20
 73
    16
 74
     0
 42
0.0000000001
 43
0.0000000001
 40
0.0
 40
0.0
 40
0.0
 40
0.0
 40
0.2
 40
0.2
 40
0.2
 40
0.2
 40
0.4
 40
0.4
 40
0.4
 40
0.4
 40
0.6
 40
0.6
 40
0.6
 40
0.6
 40
1.0
 40
1.0
 40
1.0
 40
1.0
 10
-15.5363
 20
1.1658
 30
0.0
 10
-15.5363
 20
1.1658
 30
0.0
 10
-16.1773
 20
-3.2241
 30
0.0
 10
-16.1773
 20
-3.2241
 30
0.0
 10
-16.1773
 20
-3.2241
 30
0.0
 10
-16.1773
 20
-3.2241
 30
0.0
 10
-14.7624
 20
-3.2241
 30
0.0
 10
-14.7624
 20
-3.2241
 30
0.0
 10
-14.7624
 20
-3.2241
 30
0.0
 10
-14.7624
 20
-3.2241
 30
0.0
 10
-15.5344
 20
1.1658
 30
0.0
 10
-15.5344
 20
1.1658
 30
0.0
 10
-15.5344
 20
1.1658
 30
0.0
 10
-15.5344
 20
1.1658
 30
0.0
 10
-15.5363
 20
1.1658
 30
0.0
 10
-15.5363
 20
1.1658
 30
0.0
  0
SPLINE
  5
65
330
1F
100
AcDbEntity
  8
VRSTVA_1
 62
   250
100
AcDbSpline
210
0.0
220
0.0
230
1.0
 70
    24
 71
     3
 72
     8
 73
     4
 74
     0
 42
0.0000000001
 43
0.0000000001
 40
0.0
 40
0.0
 40
0.0
 40
0.0
 40
1.0
 40
1.0
 40
1.0
 40
1.0
 10
-15.6021
 20
0.4758
 30
0.0
 10
-15.6021
 20
0.4758
 30
0.0
 10
-15.6021
 20
-24.8201
 30
0.0
 10
-15.6021
 20
-24.8201
 30
0.0
  0
SPLINE
  5
66
330
1F
100
AcDbEntity
  8
VRSTVA_1
 62
   250
100
AcDbSpline
210
0.0
220
0.0
230
1.0
 70
    24
 71
     3
 72
     8
 73
     4
 74
     0
 42
0.0000000001
 43
0.0000000001
 40
0.0
 40
0.0
 40
0.0
 40
0.0
 40
1.0
 40
1.0
 40
1.0
 40
1.0
 10
-13.4026
 20
1.2894
 30
0.0
 10
-13.4026
 20
1.2894
 30
0.0
 10
-16.7613
 20
1.2894
 30
0.0
 10
-16.7613
 20
1.2894
 30
0.0
  0
ENDSEC
  0
SECTION
  2
OBJECTS
  0
DICTIONARY
  5
C
330
0
100
AcDbDictionary
  3
ACAD_GROUP
350
D
  3
ACAD_LAYOUT
350
1A
  3
ACAD_MATERIAL
350
3B
  3
ACAD_MLEADERSTYLE
350
89
  3
ACAD_MLINESTYLE
350
17
  3
ACAD_PLOTSETTINGS
350
19
  3
ACAD_VISUALSTYLE
350
2A
  3
ACDBHEADERROUNDTRIPXREC
350
67
  3
ACDBVARIABLEDICTIONARY
350
87
  0
DICTIONARY
  5
D
102
{ACAD_REACTORS
330
C
102
}
330
C
100
AcDbDictionary
  0
DICTIONARY
  5
1A
102
{ACAD_REACTORS
330
C
102
}
330
C
100
AcDbDictionary
  0
DICTIONARY
  5
3B
102
{ACAD_REACTORS
330
C
102
}
330
C
100
AcDbDictionary
  3
BYBLOCK
350
3D
  3
BYLAYER
350
3C
  3
GLOBAL
350
3E
  0
DICTIONARY
  5
89
102
{ACAD_REACTORS
330
C
102
}
330
C
100
AcDbDictionary
  0
DICTIONARY
  5
17
102
{ACAD_REACTORS
330
C
102
}
330
C
100
AcDbDictionary
  3
STANDARD
350
18
  0
DICTIONARY
  5
19
102
{ACAD_REACTORS
330
C
102
}
330
C
100
AcDbDictionary
  0
DICTIONARY
  5
2A
102
{ACAD_REACTORS
330
C
102
}
330
C
100
AcDbDictionary
  3
2DWIREFRAME
350
2F
  3
3D_HIDDEN
350
31
  3
3DWIREFRAME
350
30
  3
BASIC
350
32
  3
BRIGHTEN
350
36
  3
COLORCHANGE
350
3A
  3
CONCEPTUAL
350
34
  3
DIM
350
35
  3
FACEPATTERN
350
39
  3
FLAT
350
2B
  3
FLATWITHEDGES
350
2C
  3
GOURAUD
350
2D
  3
GOURAUDWITHEDGES
350
2E
  3
LINEPATTERN
350
38
  3
REALISTIC
350
33
  3
THICKEN
350
37
  0
DICTIONARY
  5
67
102
{ACAD_REACTORS
330
C
102
}
330
C
100
AcDbDictionary
  3
CEPSNTYPE
350
70
  3
DIMSTYLEDATA
350
86
  3
FINGERPRINTGUID
350
71
  3
HYPERLINKBASE
350
6A
  3
INSUNITS
350
6F
  3
LAYOUTDICT
350
6C
  3
LWETCUNION
350
6E
  3
PLOTSETDICT
350
6D
  3
PSVPSCALE
350
73
  3
PUCSBASE
350
76
  3
PUCSORGBACK
350
7C
  3
PUCSORGBOTTOM
350
78
  3
PUCSORGFRONT
350
7B
  3
PUCSORGLEFT
350
79
  3
PUCSORGRIGHT
350
7A
  3
PUCSORGTOP
350
77
  3
PUCSORTHOREF
350
74
  3
PUCSORTHOVIEW
350
75
  3
STYLESHEET
350
6B
  3
TSTACKALIGN
350
68
  3
TSTACKSIZE
350
69
  3
UCSBASE
350
7F
  3
UCSORGBACK
350
85
  3
UCSORGBOTTOM
350
81
  3
UCSORGFRONT
350
84
  3
UCSORGLEFT
350
82
  3
UCSORGRIGHT
350
83
  3
UCSORGTOP
350
80
  3
UCSORTHOREF
350
7D
  3
UCSORTHOVIEW
350
7E
  3
VERSIONGUID
350
72
  0
DICTIONARY
  5
87
102
{ACAD_REACTORS
330
C
102
}
330
C
100
AcDbDictionary
  3
DIMASSOC
350
8A
  3
HIDETEXT
350
8B
  0
MATERIAL
  5
3D
102
{ACAD_REACTORS
330
3B
102
}
102
{ACAD_XDICTIONARY
360
8E
102
}
330
3B
100
AcDbMaterial
  1
ByBlock
  0
MATERIAL
  5
3C
102
{ACAD_REACTORS
330
3B
102
}
102
{ACAD_XDICTIONARY
360
8C
102
}
330
3B
100
AcDbMaterial
  1
ByLayer
  0
MATERIAL
  5
3E
102
{ACAD_REACTORS
330
3B
102
}
102
{ACAD_XDICTIONARY
360
90
102
}
330
3B
100
AcDbMaterial
  1
Global
  0
MLINESTYLE
  5
18
102
{ACAD_REACTORS
330
17
102
}
330
17
100
AcDbMlineStyle
  2
Standard
 70
     0
  3

 62
   256
 51
90.0
 52
90.0
 71
     2
 49
0.5
 62
   256
  6
BYLAYER
 49
-0.5
 62
   256
  6
BYLAYER
  0
ACAD_PROXY_OBJECT
  5
2F
102
{ACAD_REACTORS
330
2A
102
}
330
2A
100
AcDbProxyObject
 90
      499
 91
      501
 93
      436
310
42CC9915DA5C99599C985B595049028333333333333E3BF0000000000000FB0107901411070040501600405405064090741402480A0340
1001
ACAD
1000
AcDbSavedByObjectVersion
1070
     0
  0
ACAD_PROXY_OBJECT
  5
31
102
{ACAD_REACTORS
330
2A
102
}
330
2A
100
AcDbProxyObject
 90
      499
 91
      501
 93
      500
310
424CD108121A5919195B90640502408333333333333E3BF0000000000000FB01079024090700405020000000000001110200405405064090740C02480A0340
1001
ACAD
1000
AcDbSavedByObjectVersion
1070
     0
  0
ACAD_PROXY_OBJECT
  5
30
102
{ACAD_REACTORS
330
2A
102
}
330
2A
100
AcDbProxyObject
 90
      499
 91
      501
 93
      436
310
42CCD915DA5C99599C985B595059028333333333333E3BF0000000000000FB0107901411070040501600405405064090741402480A0340
1001
ACAD
1000
AcDbSavedByObjectVersion
1070
     0
  0
ACAD_PROXY_OBJECT
  5
32
102
{ACAD_REACTORS
330
2A
102
}
330
2A
100
AcDbProxyObject
 90
      499
 91
      501
 93
      388
310
4150985CDA58D07406404333333333333E3BF0000000000000FB0107A41107004050150841D405064090741402480A0350
1001
ACAD
1000
AcDbSavedByObjectVersion
1070
     0
  0
ACAD_PROXY_OBJECT
  5
36
102
{ACAD_REACTORS
330
2A
102
}
330
2A
100
AcDbProxyObject
 90
      499
 91
      501
 93
      428
310
42109C9A59DA1D195B90C409028333333333333E3BF0000000000000FB010790141107004050150841D405064090741402480A029950
1001
ACAD
1000
AcDbSavedByObjectVersion
1070
     0
  0
ACAD_PROXY_OBJECT
  5
3A
102
{ACAD_REACTORS
330
2A
102
}
330
2A
100
AcDbProxyObject
 90
      499
 91
      501
 93
      452
310
42D0DBDB1BDC90DA185B99D95104090240C333333333333E3BF0000000000000FB0108901411070040501508421405064090741402480A0350
1001
ACAD
1000
AcDbSavedByObjectVersion
1070
     0
  0
ACAD_PROXY_OBJECT
  5
34
102
{ACAD_REACTORS
330
2A
102
}
330
2A
100
AcDbProxyObject
 90
      499
 91
      501
 93
      500
310
4290DBDB98D95C1D1D585B10940D028333333333333E3BF0000000000000FB0107902409070040501000000000000111010841D405064090740C02480A0340
1001
ACAD
1000
AcDbSavedByObjectVersion
1070
     0
  0
ACAD_PROXY_OBJECT
  5
35
102
{ACAD_REACTORS
330
2A
102
}
330
2A
100
AcDbProxyObject
 90
      499
 91
      501
 93
      412
310
40D11A5B50B409028333333333333E3BF0000000000000FB010790141107004050150841D405064090741402480A02677FFFFFD0
1001
ACAD
1000
AcDbSavedByObjectVersion
1070
     0
  0
ACAD_PROXY_OBJECT
  5
39
102
{ACAD_REACTORS
330
2A
102
}
330
2A
100
AcDbProxyObject
 90
      499
 91
      501
 93
      444
310
42D19858D95C185D1D195C9B90F409028333333333333E3BF0000000000000FB010790141107004050150841D405064090741402480A0350
1001
ACAD
1000
AcDbSavedByObjectVersion
1070
     0
  0
ACAD_PROXY_OBJECT
  5
2B
102
{ACAD_REACTORS
330
2A
102
}
330
2A
100
AcDbProxyObject
 90
      499
 91
      501
 93
      388
310
41119B185D240901404333333333333E3BF0000000000000F9010740A41107004050150841D405064090741402480A1B50
1001
ACAD
1000
AcDbSavedByObjectVersion
1070
     0
  0
ACAD_PROXY_OBJECT
  5
2C
102
{ACAD_REACTORS
330
2A
102
}
330
2A
100
AcDbProxyObject
 90
      499
 91
      501
 93
      476
310
43519B185D15DA5D1A115919D95CD0140901404333333333333E3BF0000000000000F9010740901411070040501600405405064090741402480A1B50
1001
ACAD
1000
AcDbSavedByObjectVersion
1070
     0
  0
ACAD_PROXY_OBJECT
  5
2D
102
{ACAD_REACTORS
330
2A
102
}
330
2A
100
AcDbProxyObject
 90
      499
 91
      501
 93
      412
310
41D1DBDD5C985D5910240902404333333333333E3BF0000000000000F9010740A411070040501641D405064090741402480A1B50
1001
ACAD
1000
AcDbSavedByObjectVersion
1070
     0
  0
ACAD_PROXY_OBJECT
  5
2E
102
{ACAD_REACTORS
330
2A
102
}
330
2A
100
AcDbProxyObject
 90
      499
 91
      501
 93
      500
310
4411DBDD5C985D5915DA5D1A115919D95CD0340902404333333333333E3BF0000000000000F9010740901411070040501600405405064090741402480A1B50
1001
ACAD
1000
AcDbSavedByObjectVersion
1070
     0
  0
ACAD_PROXY_OBJECT
  5
38
102
{ACAD_REACTORS
330
2A
102
}
330
2A
100
AcDbProxyObject
 90
      499
 91
      501
 93
      444
310
42D31A5B995C185D1D195C9B90E409028333333333333E3BF0000000000000FB010790141107004050750841D405064090741402483A0350
1001
ACAD
1000
AcDbSavedByObjectVersion
1070
     0
  0
ACAD_PROXY_OBJECT
  5
33
102
{ACAD_REACTORS
330
2A
102
}
330
2A
100
AcDbProxyObject
 90
      499
 91
      501
 93
      420
310
425499585B1A5CDD1A58D08409028333333333333E3BF0000000000000FB01079019070040501508421405064090741402480A1B40
1001
ACAD
1000
AcDbSavedByObjectVersion
1070
     0
  0
ACAD_PROXY_OBJECT
  5
37
102
{ACAD_REACTORS
330
2A
102
}
330
2A
100
AcDbProxyObject
 90
      499
 91
      501
 93
      412
310
41D51A1A58DAD95B90D409028333333333333E3BF0000000000000FB010790141107004050150C41D405064090741402480A0350
1001
ACAD
1000
AcDbSavedByObjectVersion
1070
     0
  0
XRECORD
  5
70
102
{ACAD_REACTORS
330
67
102
}
330
67
100
AcDbXrecord
 90
        0
  0
XRECORD
  5
86
102
{ACAD_REACTORS
330
67
102
}
330
67
100
AcDbXrecord
1000
DSTYLE
1002
{
1070
   340
340
11
1002
}
  0
XRECORD
  5
71
102
{ACAD_REACTORS
330
67
102
}
330
67
100
AcDbXrecord
  1
{19DF9D6E-5D8F-4BC0-B136-A263D8AA6C96}
  0
XRECORD
  5
6A
102
{ACAD_REACTORS
330
67
102
}
330
67
100
AcDbXrecord
  1

  0
XRECORD
  5
6F
102
{ACAD_REACTORS
330
67
102
}
330
67
100
AcDbXrecord
 90
        4
  0
XRECORD
  5
6C
102
{ACAD_REACTORS
330
67
102
}
330
67
100
AcDbXrecord
340
1A
  0
XRECORD
  5
6E
102
{ACAD_REACTORS
330
67
102
}
330
67
100
AcDbXrecord
 90
    10781
  0
XRECORD
  5
6D
102
{ACAD_REACTORS
330
67
102
}
330
67
100
AcDbXrecord
340
19
  0
XRECORD
  5
73
102
{ACAD_REACTORS
330
67
102
}
330
67
100
AcDbXrecord
 40
0.0
  0
XRECORD
  5
76
102
{ACAD_REACTORS
330
67
102
}
330
67
100
AcDbXrecord
340
0
  0
XRECORD
  5
7C
102
{ACAD_REACTORS
330
67
102
}
330
67
100
AcDbXrecord
 10
0.0
 20
0.0
 30
0.0
  0
XRECORD
  5
78
102
{ACAD_REACTORS
330
67
102
}
330
67
100
AcDbXrecord
 10
0.0
 20
0.0
 30
0.0
  0
XRECORD
  5
7B
102
{ACAD_REACTORS
330
67
102
}
330
67
100
AcDbXrecord
 10
0.0
 20
0.0
 30
0.0
  0
XRECORD
  5
79
102
{ACAD_REACTORS
330
67
102
}
330
67
100
AcDbXrecord
 10
0.0
 20
0.0
 30
0.0
  0
XRECORD
  5
7A
102
{ACAD_REACTORS
330
67
102
}
330
67
100
AcDbXrecord
 10
0.0
 20
0.0
 30
0.0
  0
XRECORD
  5
77
102
{ACAD_REACTORS
330
67
102
}
330
67
100
AcDbXrecord
 10
0.0
 20
0.0
 30
0.0
  0
XRECORD
  5
74
102
{ACAD_REACTORS
330
67
102
}
330
67
100
AcDbXrecord
340
0
  0
XRECORD
  5
75
102
{ACAD_REACTORS
330
67
102
}
330
67
100
AcDbXrecord
 70
     0
  0
XRECORD
  5
6B
102
{ACAD_REACTORS
330
67
102
}
330
67
100
AcDbXrecord
  1

  0
XRECORD
  5
68
102
{ACAD_REACTORS
330
67
102
}
330
67
100
AcDbXrecord
 90
        1
  0
XRECORD
  5
69
102
{ACAD_REACTORS
330
67
102
}
330
67
100
AcDbXrecord
 90
       70
  0
XRECORD
  5
7F
102
{ACAD_REACTORS
330
67
102
}
330
67
100
AcDbXrecord
340
0
  0
XRECORD
  5
85
102
{ACAD_REACTORS
330
67
102
}
330
67
100
AcDbXrecord
 10
0.0
 20
0.0
 30
0.0
  0
XRECORD
  5
81
102
{ACAD_REACTORS
330
67
102
}
330
67
100
AcDbXrecord
 10
0.0
 20
0.0
 30
0.0
  0
XRECORD
  5
84
102
{ACAD_REACTORS
330
67
102
}
330
67
100
AcDbXrecord
 10
0.0
 20
0.0
 30
0.0
  0
XRECORD
  5
82
102
{ACAD_REACTORS
330
67
102
}
330
67
100
AcDbXrecord
 10
0.0
 20
0.0
 30
0.0
  0
XRECORD
  5
83
102
{ACAD_REACTORS
330
67
102
}
330
67
100
AcDbXrecord
 10
0.0
 20
0.0
 30
0.0
  0
XRECORD
  5
80
102
{ACAD_REACTORS
330
67
102
}
330
67
100
AcDbXrecord
 10
0.0
 20
0.0
 30
0.0
  0
XRECORD
  5
7D
102
{ACAD_REACTORS
330
67
102
}
330
67
100
AcDbXrecord
340
0
  0
XRECORD
  5
7E
102
{ACAD_REACTORS
330
67
102
}
330
67
100
AcDbXrecord
 70
     0
  0
XRECORD
  5
72
102
{ACAD_REACTORS
330
67
102
}
330
67
100
AcDbXrecord
  1
{FAEB1C32-E019-11D5-929B-00C0DF256EC4}
  0
DICTIONARYVAR
  5
8A
102
{ACAD_REACTORS
330
87
102
}
330
87
100
DictionaryVariables
280
     0
  1
2
  0
DICTIONARYVAR
  5
8B
102
{ACAD_REACTORS
330
87
102
}
330
87
100
DictionaryVariables
280
     0
  1
1
  0
DICTIONARY
  5
8E
330
3D
100
AcDbDictionary
280
     1
  3
ACAD_XREC_ROUNDTRIP
360
8F
  0
DICTIONARY
  5
8C
330
3C
100
AcDbDictionary
280
     1
  3
ACAD_XREC_ROUNDTRIP
360
8D
  0
DICTIONARY
  5
90
330
3E
100
AcDbDictionary
280
     1
  3
ACAD_XREC_ROUNDTRIP
360
91
  0
XRECORD
  5
8F
102
{ACAD_REACTORS
330
8E
102
}
330
8E
100
AcDbXrecord
102
MATERIAL
148
0.0
149
0.0
149
0.0
 93
        0
 94
      127
282
     0
 72
     1
 77
     1
171
     1
175
     1
179
     1
273
     0
  0
XRECORD
  5
8D
102
{ACAD_REACTORS
330
8C
102
}
330
8C
100
AcDbXrecord
102
MATERIAL
148
0.0
149
0.0
149
0.0
 93
        0
 94
      127
282
     0
 72
     1
 77
     1
171
     1
175
     1
179
     1
273
     0
  0
XRECORD
  5
91
102
{ACAD_REACTORS
330
90
102
}
330
90
100
AcDbXrecord
102
MATERIAL
148
0.0
149
0.0
149
0.0
 93
        0
 94
      127
282
     0
 72
     1
 77
     1
171
     1
175
     1
179
     1
273
     0
  0
ENDSEC
  0
EOF
