  0
SECTION
  2
HEADER
  9
$ACADVER
  1
AC1014
  9
$ACADMAINTVER
 70
     9
  9
$DWGCODEPAGE
  3
ANSI_1250
  9
$INSBASE
 10
0.0
 20
0.0
 30
0.0
  9
$EXTMIN
 10
-32.852
 20
-19.0255
 30
0.0
  9
$EXTMAX
 10
32.8521
 20
19.0255
 30
0.0
  9
$LIMMIN
 10
0.0
 20
0.0
  9
$LIMMAX
 10
12.0
 20
9.0
  9
$ORTHOMODE
 70
     0
  9
$REGENMODE
 70
     1
  9
$FILLMODE
 70
     1
  9
$QTEXTMODE
 70
     0
  9
$MIRRTEXT
 70
     1
  9
$DRAGMODE
 70
     2
  9
$LTSCALE
 40
1.0
  9
$OSMODE
 70
    37
  9
$ATTMODE
 70
     1
  9
$TEXTSIZE
 40
0.2
  9
$TRACEWID
 40
0.05
  9
$TEXTSTYLE
  7
STANDARD
  9
$CLAYER
  8
0
  9
$CELTYPE
  6
BYLAYER
  9
$CECOLOR
 62
   256
  9
$CELTSCALE
 40
1.0
  9
$DELOBJ
 70
     1
  9
$DISPSILH
 70
     0
  9
$DIMSCALE
 40
1.0
  9
$DIMASZ
 40
0.18
  9
$DIMEXO
 40
0.0625
  9
$DIMDLI
 40
0.38
  9
$DIMRND
 40
0.0
  9
$DIMDLE
 40
0.0
  9
$DIMEXE
 40
0.18
  9
$DIMTP
 40
0.0
  9
$DIMTM
 40
0.0
  9
$DIMTXT
 40
0.18
  9
$DIMCEN
 40
0.09
  9
$DIMTSZ
 40
0.0
  9
$DIMTOL
 70
     0
  9
$DIMLIM
 70
     0
  9
$DIMTIH
 70
     1
  9
$DIMTOH
 70
     1
  9
$DIMSE1
 70
     0
  9
$DIMSE2
 70
     0
  9
$DIMTAD
 70
     0
  9
$DIMZIN
 70
     0
  9
$DIMBLK
  1

  9
$DIMASO
 70
     1
  9
$DIMSHO
 70
     1
  9
$DIMPOST
  1

  9
$DIMAPOST
  1

  9
$DIMALT
 70
     0
  9
$DIMALTD
 70
     2
  9
$DIMALTF
 40
25.4
  9
$DIMLFAC
 40
1.0
  9
$DIMTOFL
 70
     0
  9
$DIMTVP
 40
0.0
  9
$DIMTIX
 70
     0
  9
$DIMSOXD
 70
     0
  9
$DIMSAH
 70
     0
  9
$DIMBLK1
  1

  9
$DIMBLK2
  1

  9
$DIMSTYLE
  2
STANDARD
  9
$DIMCLRD
 70
     0
  9
$DIMCLRE
 70
     0
  9
$DIMCLRT
 70
     0
  9
$DIMTFAC
 40
1.0
  9
$DIMGAP
 40
0.09
  9
$DIMJUST
 70
     0
  9
$DIMSD1
 70
     0
  9
$DIMSD2
 70
     0
  9
$DIMTOLJ
 70
     1
  9
$DIMTZIN
 70
     0
  9
$DIMALTZ
 70
     0
  9
$DIMALTTZ
 70
     0
  9
$DIMFIT
 70
     3
  9
$DIMUPT
 70
     0
  9
$DIMUNIT
 70
     2
  9
$DIMDEC
 70
     4
  9
$DIMTDEC
 70
     4
  9
$DIMALTU
 70
     2
  9
$DIMALTTD
 70
     2
  9
$DIMTXSTY
  7
STANDARD
  9
$DIMAUNIT
 70
     0
  9
$LUNITS
 70
     2
  9
$LUPREC
 70
     4
  9
$SKETCHINC
 40
0.1
  9
$FILLETRAD
 40
0.5
  9
$AUNITS
 70
     0
  9
$AUPREC
 70
     0
  9
$MENU
  1
.
  9
$ELEVATION
 40
0.0
  9
$PELEVATION
 40
0.0
  9
$THICKNESS
 40
0.0
  9
$LIMCHECK
 70
     0
  9
$CHAMFERA
 40
0.5
  9
$CHAMFERB
 40
0.5
  9
$CHAMFERC
 40
1.0
  9
$CHAMFERD
 40
0.0
  9
$SKPOLY
 70
     0
  9
$TDCREATE
 40
2456701.341352072
  9
$TDUPDATE
 40
2456701.341352083
  9
$TDINDWG
 40
0.0000000116
  9
$TDUSRTIMER
 40
0.0000000116
  9
$USRTIMER
 70
     1
  9
$ANGBASE
 50
0.0
  9
$ANGDIR
 70
     0
  9
$PDMODE
 70
     0
  9
$PDSIZE
 40
0.0
  9
$PLINEWID
 40
0.0
  9
$COORDS
 70
     1
  9
$SPLFRAME
 70
     0
  9
$SPLINETYPE
 70
     6
  9
$SPLINESEGS
 70
     8
  9
$ATTDIA
 70
     0
  9
$ATTREQ
 70
     1
  9
$HANDLING
 70
     1
  9
$HANDSEED
  5
EB
  9
$SURFTAB1
 70
     6
  9
$SURFTAB2
 70
     6
  9
$SURFTYPE
 70
     6
  9
$SURFU
 70
     6
  9
$SURFV
 70
     6
  9
$UCSNAME
  2

  9
$UCSORG
 10
0.0
 20
0.0
 30
0.0
  9
$UCSXDIR
 10
1.0
 20
0.0
 30
0.0
  9
$UCSYDIR
 10
0.0
 20
1.0
 30
0.0
  9
$PUCSNAME
  2

  9
$PUCSORG
 10
0.0
 20
0.0
 30
0.0
  9
$PUCSXDIR
 10
1.0
 20
0.0
 30
0.0
  9
$PUCSYDIR
 10
0.0
 20
1.0
 30
0.0
  9
$USERI1
 70
     0
  9
$USERI2
 70
     0
  9
$USERI3
 70
     0
  9
$USERI4
 70
     0
  9
$USERI5
 70
     0
  9
$USERR1
 40
0.0
  9
$USERR2
 40
0.0
  9
$USERR3
 40
0.0
  9
$USERR4
 40
0.0
  9
$USERR5
 40
0.0
  9
$WORLDVIEW
 70
     1
  9
$SHADEDGE
 70
     3
  9
$SHADEDIF
 70
    70
  9
$TILEMODE
 70
     1
  9
$MAXACTVP
 70
    64
  9
$PINSBASE
 10
0.0
 20
0.0
 30
0.0
  9
$PLIMCHECK
 70
     0
  9
$PEXTMIN
 10
1.000000000000000E+20
 20
1.000000000000000E+20
 30
1.000000000000000E+20
  9
$PEXTMAX
 10
-1.000000000000000E+20
 20
-1.000000000000000E+20
 30
-1.000000000000000E+20
  9
$PLIMMIN
 10
0.0
 20
0.0
  9
$PLIMMAX
 10
12.0
 20
9.0
  9
$UNITMODE
 70
     0
  9
$VISRETAIN
 70
     1
  9
$PLINEGEN
 70
     0
  9
$PSLTSCALE
 70
     1
  9
$TREEDEPTH
 70
  3020
  9
$PICKSTYLE
 70
     1
  9
$CMLSTYLE
  2
STANDARD
  9
$CMLJUST
 70
     0
  9
$CMLSCALE
 40
1.0
  9
$PROXYGRAPHICS
 70
     1
  9
$MEASUREMENT
 70
     0
  0
ENDSEC
  0
SECTION
  2
CLASSES
  0
CLASS
  1
ACDBDICTIONARYWDFLT
  2
AcDbDictionaryWithDefault
  3
ObjectDBX Classes
 90
        0
280
     0
281
     0
  0
CLASS
  1
VISUALSTYLE
  2
AcDbVisualStyle
  3
ObjectDBX Classes
 90
     4095
280
     0
281
     0
  0
CLASS
  1
MATERIAL
  2
AcDbMaterial
  3
ObjectDBX Classes
 90
     1153
280
     0
281
     0
  0
CLASS
  1
DICTIONARYVAR
  2
AcDbDictionaryVar
  3
ObjectDBX Classes
 90
        0
280
     0
281
     0
  0
CLASS
  1
XRECORD
  2
AcDbXrecord
  3
AutoCAD 2000
 90
        0
280
     0
281
     0
  0
CLASS
  1
LWPOLYLINE
  2
AcDbPolyline
  3
AutoCAD 2000
 90
        0
280
     0
281
     1
  0
CLASS
  1
HATCH
  2
AcDbHatch
  3
AutoCAD 2000
 90
        0
280
     0
281
     1
  0
CLASS
  1
ACDBPLACEHOLDER
  2
AcDbPlaceHolder
  3
ObjectDBX Classes
 90
        0
280
     0
281
     0
  0
CLASS
  1
LAYOUT
  2
AcDbLayout
  3
ObjectDBX Classes
 90
        0
280
     0
281
     0
  0
ENDSEC
  0
SECTION
  2
TABLES
  0
TABLE
  2
VPORT
  5
8
330
0
100
AcDbSymbolTable
 70
     1
  0
VPORT
  5
29
330
8
100
AcDbSymbolTableRecord
100
AcDbViewportTableRecord
  2
*ACTIVE
 70
     0
 10
0.0
 20
0.0
 11
1.0
 21
1.0
 12
10.42990654205607
 22
4.5
 13
0.0
 23
0.0
 14
0.5
 24
0.5
 15
0.5
 25
0.5
 16
0.0
 26
0.0
 36
1.0
 17
0.0
 27
0.0
 37
0.0
 40
9.0
 41
1.972972972850329
 42
50.0
 43
0.0
 44
0.0
 50
0.0
 51
0.0
 71
     0
 72
   100
 73
     1
 74
     3
 75
     0
 76
     0
 77
     0
 78
     0
  0
ENDTAB
  0
TABLE
  2
LTYPE
  5
5
330
0
100
AcDbSymbolTable
 70
     1
  0
LTYPE
  5
14
330
5
100
AcDbSymbolTableRecord
100
AcDbLinetypeTableRecord
  2
BYBLOCK
 70
     0
  3

 72
    65
 73
     0
 40
0.0
  0
LTYPE
  5
15
330
5
100
AcDbSymbolTableRecord
100
AcDbLinetypeTableRecord
  2
BYLAYER
 70
     0
  3

 72
    65
 73
     0
 40
0.0
  0
LTYPE
  5
16
330
5
100
AcDbSymbolTableRecord
100
AcDbLinetypeTableRecord
  2
CONTINUOUS
 70
     0
  3
Solid line
 72
    65
 73
     0
 40
0.0
  0
ENDTAB
  0
TABLE
  2
LAYER
  5
2
330
0
100
AcDbSymbolTable
 70
     2
  0
LAYER
  5
10
330
2
100
AcDbSymbolTableRecord
100
AcDbLayerTableRecord
  2
0
 70
     0
 62
     7
  6
CONTINUOUS
  0
LAYER
  5
40
330
2
100
AcDbSymbolTableRecord
100
AcDbLayerTableRecord
  2
VRSTVA_1
 70
     0
 62
     7
  6
CONTINUOUS
  0
ENDTAB
  0
TABLE
  2
STYLE
  5
3
330
0
100
AcDbSymbolTable
 70
     1
  0
STYLE
  5
11
330
3
100
AcDbSymbolTableRecord
100
AcDbTextStyleTableRecord
  2
STANDARD
 70
     0
 40
0.0
 41
1.0
 50
0.0
 71
     0
 42
0.2
  3
txt
  4

  0
ENDTAB
  0
TABLE
  2
VIEW
  5
6
330
0
100
AcDbSymbolTable
 70
     0
  0
ENDTAB
  0
TABLE
  2
UCS
  5
7
330
0
100
AcDbSymbolTable
 70
     0
  0
ENDTAB
  0
TABLE
  2
APPID
  5
9
330
0
100
AcDbSymbolTable
 70
     2
  0
APPID
  5
12
330
9
100
AcDbSymbolTableRecord
100
AcDbRegAppTableRecord
  2
ACAD
 70
     0
  0
APPID
  5
3F
330
9
100
AcDbSymbolTableRecord
100
AcDbRegAppTableRecord
  2
ODA
 70
     0
  0
ENDTAB
  0
TABLE
  2
DIMSTYLE
  5
A
330
0
100
AcDbSymbolTable
 70
     1
  0
DIMSTYLE
105
27
330
A
100
AcDbSymbolTableRecord
100
AcDbDimStyleTableRecord
  2
STANDARD
 70
     0
  3

  4

  5

  6

  7

 40
1.0
 41
0.18
 42
0.0625
 43
0.38
 44
0.18
 45
0.0
 46
0.0
 47
0.0
 48
0.0
140
0.18
141
0.09
142
0.0
143
25.4
144
1.0
145
0.0
146
1.0
147
0.09
 71
     0
 72
     0
 73
     1
 74
     1
 75
     0
 76
     0
 77
     0
 78
     0
170
     0
171
     2
172
     0
173
     0
174
     0
175
     0
176
     0
177
     0
178
     0
270
     2
271
     4
272
     4
273
     2
274
     2
340
11
275
     0
280
     0
281
     0
282
     0
283
     1
284
     0
285
     0
286
     0
287
     3
288
     0
  0
ENDTAB
  0
TABLE
  2
BLOCK_RECORD
  5
1
330
0
100
AcDbSymbolTable
 70
     1
  0
BLOCK_RECORD
  5
1F
330
1
100
AcDbSymbolTableRecord
100
AcDbBlockTableRecord
  2
*MODEL_SPACE
  0
BLOCK_RECORD
  5
1B
330
1
100
AcDbSymbolTableRecord
100
AcDbBlockTableRecord
  2
*PAPER_SPACE
  0
ENDTAB
  0
ENDSEC
  0
SECTION
  2
BLOCKS
  0
BLOCK
  5
20
330
1F
100
AcDbEntity
  8
0
100
AcDbBlockBegin
  2
*MODEL_SPACE
 70
     0
 10
0.0
 20
0.0
 30
0.0
  3
*MODEL_SPACE
  1

  0
ENDBLK
  5
21
330
1F
100
AcDbEntity
  8
0
100
AcDbBlockEnd
  0
BLOCK
  5
1C
330
1B
100
AcDbEntity
 67
     1
  8
0
100
AcDbBlockBegin
  2
*PAPER_SPACE
 70
     0
 10
0.0
 20
0.0
 30
0.0
  3
*PAPER_SPACE
  1

  0
ENDBLK
  5
1D
330
1B
100
AcDbEntity
 67
     1
  8
0
100
AcDbBlockEnd
  0
ENDSEC
  0
SECTION
  2
ENTITIES
  0
SPLINE
  5
41
330
1F
100
AcDbEntity
  8
VRSTVA_1
100
AcDbSpline
210
0.0
220
0.0
230
1.0
 70
    24
 71
     3
 72
    16
 73
    12
 74
     0
 42
0.0000000001
 43
0.0000000001
 40
0.0
 40
0.0
 40
0.0
 40
0.0
 40
0.25
 40
0.25
 40
0.25
 40
0.25
 40
0.5
 40
0.5
 40
0.5
 40
0.5
 40
1.0
 40
1.0
 40
1.0
 40
1.0
 10
-23.9396
 20
13.2186
 30
0.0
 10
-23.9396
 20
13.2186
 30
0.0
 10
-23.9396
 20
12.8853
 30
0.0
 10
-23.9396
 20
12.8853
 30
0.0
 10
-23.9396
 20
12.8853
 30
0.0
 10
-23.9396
 20
12.8853
 30
0.0
 10
-23.9396
 20
-13.7747
 30
0.0
 10
-23.9396
 20
-13.7747
 30
0.0
 10
-23.9396
 20
-13.7747
 30
0.0
 10
-23.9396
 20
-13.7747
 30
0.0
 10
-23.9396
 20
-14.1079
 30
0.0
 10
-23.9396
 20
-14.1079
 30
0.0
  0
SPLINE
  5
42
330
1F
100
AcDbEntity
  8
VRSTVA_1
100
AcDbSpline
210
0.0
220
0.0
230
1.0
 70
    24
 71
     3
 72
    16
 73
    12
 74
     0
 42
0.0000000001
 43
0.0000000001
 40
0.0
 40
0.0
 40
0.0
 40
0.0
 40
0.25
 40
0.25
 40
0.25
 40
0.25
 40
0.5
 40
0.5
 40
0.5
 40
0.5
 40
1.0
 40
1.0
 40
1.0
 40
1.0
 10
-23.8563
 20
-14.1913
 30
0.0
 10
-23.8563
 20
-14.1913
 30
0.0
 10
-23.523
 20
-14.1913
 30
0.0
 10
-23.523
 20
-14.1913
 30
0.0
 10
-23.523
 20
-14.1913
 30
0.0
 10
-23.523
 20
-14.1913
 30
0.0
 10
16.8001
 20
-14.1913
 30
0.0
 10
16.8001
 20
-14.1913
 30
0.0
 10
16.8001
 20
-14.1913
 30
0.0
 10
16.8001
 20
-14.1913
 30
0.0
 10
17.1333
 20
-14.1913
 30
0.0
 10
17.1333
 20
-14.1913
 30
0.0
  0
SPLINE
  5
43
330
1F
100
AcDbEntity
  8
VRSTVA_1
100
AcDbSpline
210
0.0
220
0.0
230
1.0
 70
     8
 71
     3
 72
     8
 73
     4
 74
     0
 42
0.0000000001
 43
0.0000000001
 40
0.0
 40
0.0
 40
0.0
 40
0.0
 40
1.0
 40
1.0
 40
1.0
 40
1.0
 10
17.1333
 20
-14.1913
 30
0.0
 10
17.1629
 20
-14.1911
 30
0.0
 10
17.1907
 20
-14.1751
 30
0.0
 10
17.2055
 20
-14.1496
 30
0.0
  0
SPLINE
  5
44
330
1F
100
AcDbEntity
  8
VRSTVA_1
100
AcDbSpline
210
0.0
220
0.0
230
1.0
 70
     8
 71
     3
 72
    20
 73
    16
 74
     0
 42
0.0000000001
 43
0.0000000001
 40
0.0
 40
0.0
 40
0.0
 40
0.0
 40
0.2
 40
0.2
 40
0.2
 40
0.2
 40
0.4
 40
0.4
 40
0.4
 40
0.4
 40
0.6
 40
0.6
 40
0.6
 40
0.6
 40
1.0
 40
1.0
 40
1.0
 40
1.0
 10
17.2055
 20
-14.1496
 30
0.0
 10
17.2055
 20
-14.1496
 30
0.0
 10
17.2154
 20
-14.1224
 30
0.0
 10
17.2154
 20
-14.1224
 30
0.0
 10
17.2154
 20
-14.1224
 30
0.0
 10
17.2154
 20
-14.1224
 30
0.0
 10
17.2154
 20
-13.7891
 30
0.0
 10
17.2154
 20
-13.7891
 30
0.0
 10
17.2154
 20
-13.7891
 30
0.0
 10
17.2154
 20
-13.7891
 30
0.0
 10
17.2154
 20
12.8998
 30
0.0
 10
17.2154
 20
12.8998
 30
0.0
 10
17.2154
 20
12.8998
 30
0.0
 10
17.2154
 20
12.8998
 30
0.0
 10
17.2154
 20
13.2331
 30
0.0
 10
17.2154
 20
13.2331
 30
0.0
  0
SPLINE
  5
45
330
1F
100
AcDbEntity
  8
VRSTVA_1
100
AcDbSpline
210
0.0
220
0.0
230
1.0
 70
     8
 71
     3
 72
    20
 73
    16
 74
     0
 42
0.0000000001
 43
0.0000000001
 40
0.0
 40
0.0
 40
0.0
 40
0.0
 40
0.2
 40
0.2
 40
0.2
 40
0.2
 40
0.4
 40
0.4
 40
0.4
 40
0.4
 40
0.6
 40
0.6
 40
0.6
 40
0.6
 40
1.0
 40
1.0
 40
1.0
 40
1.0
 10
17.2166
 20
-14.1079
 30
0.0
 10
17.2166
 20
-14.1079
 30
0.0
 10
17.2166
 20
-13.7747
 30
0.0
 10
17.2166
 20
-13.7747
 30
0.0
 10
17.2166
 20
-13.7747
 30
0.0
 10
17.2166
 20
-13.7747
 30
0.0
 10
17.2166
 20
12.8853
 30
0.0
 10
17.2166
 20
12.8853
 30
0.0
 10
17.2166
 20
12.8853
 30
0.0
 10
17.2166
 20
12.8853
 30
0.0
 10
17.2166
 20
13.2187
 30
0.0
 10
17.2166
 20
13.2187
 30
0.0
 10
17.2166
 20
13.2187
 30
0.0
 10
17.2166
 20
13.2187
 30
0.0
 10
17.2154
 20
13.2331
 30
0.0
 10
17.2154
 20
13.2331
 30
0.0
  0
SPLINE
  5
46
330
1F
100
AcDbEntity
  8
VRSTVA_1
100
AcDbSpline
210
0.0
220
0.0
230
1.0
 70
     8
 71
     3
 72
     8
 73
     4
 74
     0
 42
0.0000000001
 43
0.0000000001
 40
0.0
 40
0.0
 40
0.0
 40
0.0
 40
1.0
 40
1.0
 40
1.0
 40
1.0
 10
17.2154
 20
13.2331
 30
0.0
 10
17.2084
 20
13.2725
 30
0.0
 10
17.1733
 20
13.3017
 30
0.0
 10
17.1333
 20
13.3019
 30
0.0
  0
SPLINE
  5
47
330
1F
100
AcDbEntity
  8
VRSTVA_1
100
AcDbSpline
210
0.0
220
0.0
230
1.0
 70
    24
 71
     3
 72
    16
 73
    12
 74
     0
 42
0.0000000001
 43
0.0000000001
 40
0.0
 40
0.0
 40
0.0
 40
0.0
 40
0.25
 40
0.25
 40
0.25
 40
0.25
 40
0.5
 40
0.5
 40
0.5
 40
0.5
 40
1.0
 40
1.0
 40
1.0
 40
1.0
 10
17.1333
 20
13.3019
 30
0.0
 10
17.1333
 20
13.3019
 30
0.0
 10
16.8001
 20
13.3019
 30
0.0
 10
16.8001
 20
13.3019
 30
0.0
 10
16.8001
 20
13.3019
 30
0.0
 10
16.8001
 20
13.3019
 30
0.0
 10
-23.523
 20
13.3019
 30
0.0
 10
-23.523
 20
13.3019
 30
0.0
 10
-23.523
 20
13.3019
 30
0.0
 10
-23.523
 20
13.3019
 30
0.0
 10
-23.8563
 20
13.3019
 30
0.0
 10
-23.8563
 20
13.3019
 30
0.0
  0
SPLINE
  5
48
330
1F
100
AcDbEntity
  8
VRSTVA_1
100
AcDbSpline
210
0.0
220
0.0
230
1.0
 70
     8
 71
     3
 72
     8
 73
     4
 74
     0
 42
0.0000000001
 43
0.0000000001
 40
0.0
 40
0.0
 40
0.0
 40
0.0
 40
1.0
 40
1.0
 40
1.0
 40
1.0
 10
-23.8563
 20
13.3019
 30
0.0
 10
-24.0225
 20
13.2874
 30
0.0
 10
-23.9383
 20
12.9342
 30
0.0
 10
-23.9383
 20
12.8998
 30
0.0
  0
SPLINE
  5
49
330
1F
100
AcDbEntity
  8
VRSTVA_1
100
AcDbSpline
210
0.0
220
0.0
230
1.0
 70
    24
 71
     3
 72
    12
 73
     8
 74
     0
 42
0.0000000001
 43
0.0000000001
 40
0.0
 40
0.0
 40
0.0
 40
0.0
 40
0.3333333333333333
 40
0.3333333333333333
 40
0.3333333333333333
 40
0.3333333333333333
 40
1.0
 40
1.0
 40
1.0
 40
1.0
 10
-23.9383
 20
12.8998
 30
0.0
 10
-23.9383
 20
12.8998
 30
0.0
 10
-23.9383
 20
-13.7891
 30
0.0
 10
-23.9383
 20
-13.7891
 30
0.0
 10
-23.9383
 20
-13.7891
 30
0.0
 10
-23.9383
 20
-13.7891
 30
0.0
 10
-23.9383
 20
-14.1224
 30
0.0
 10
-23.9383
 20
-14.1224
 30
0.0
  0
SPLINE
  5
4A
330
1F
100
AcDbEntity
  8
VRSTVA_1
100
AcDbSpline
210
0.0
220
0.0
230
1.0
 70
     8
 71
     3
 72
    20
 73
    16
 74
     0
 42
0.0000000001
 43
0.0000000001
 40
0.0
 40
0.0
 40
0.0
 40
0.0
 40
0.2
 40
0.2
 40
0.2
 40
0.2
 40
0.4
 40
0.4
 40
0.4
 40
0.4
 40
0.6
 40
0.6
 40
0.6
 40
0.6
 40
1.0
 40
1.0
 40
1.0
 40
1.0
 10
-20.4967
 20
-7.9583
 30
0.0
 10
-20.4967
 20
-7.9583
 30
0.0
 10
-20.5138
 20
-7.9593
 30
0.0
 10
-20.5138
 20
-7.9593
 30
0.0
 10
-20.5138
 20
-7.9593
 30
0.0
 10
-20.5138
 20
-7.9593
 30
0.0
 10
-20.8471
 20
-7.9592
 30
0.0
 10
-20.8471
 20
-7.9592
 30
0.0
 10
-20.8471
 20
-7.9592
 30
0.0
 10
-20.8471
 20
-7.9592
 30
0.0
 10
-23.4841
 20
-7.9582
 30
0.0
 10
-23.4841
 20
-7.9582
 30
0.0
 10
-23.4841
 20
-7.9582
 30
0.0
 10
-23.4841
 20
-7.9582
 30
0.0
 10
-23.8174
 20
-7.958
 30
0.0
 10
-23.8174
 20
-7.958
 30
0.0
  0
SPLINE
  5
4B
330
1F
100
AcDbEntity
  8
VRSTVA_1
100
AcDbSpline
210
0.0
220
0.0
230
1.0
 70
     8
 71
     3
 72
    12
 73
     8
 74
     0
 42
0.0000000001
 43
0.0000000001
 40
0.0
 40
0.0
 40
0.0
 40
0.0
 40
0.3333333333333333
 40
0.3333333333333333
 40
0.3333333333333333
 40
0.3333333333333333
 40
1.0
 40
1.0
 40
1.0
 40
1.0
 10
-23.8174
 20
-7.958
 30
0.0
 10
-23.8306
 20
-7.9579
 30
0.0
 10
-23.8468
 20
-7.948
 30
0.0
 10
-23.8565
 20
-7.9398
 30
0.0
 10
-23.8565
 20
-7.9398
 30
0.0
 10
-23.8753
 20
-7.9241
 30
0.0
 10
-23.8861
 20
-7.9005
 30
0.0
 10
-23.8863
 20
-7.8761
 30
0.0
  0
SPLINE
  5
4C
330
1F
100
AcDbEntity
  8
VRSTVA_1
100
AcDbSpline
210
0.0
220
0.0
230
1.0
 70
     8
 71
     3
 72
    20
 73
    16
 74
     0
 42
0.0000000001
 43
0.0000000001
 40
0.0
 40
0.0
 40
0.0
 40
0.0
 40
0.2
 40
0.2
 40
0.2
 40
0.2
 40
0.4
 40
0.4
 40
0.4
 40
0.4
 40
0.6
 40
0.6
 40
0.6
 40
0.6
 40
1.0
 40
1.0
 40
1.0
 40
1.0
 10
-23.8863
 20
-7.8761
 30
0.0
 10
-23.8863
 20
-7.8761
 30
0.0
 10
-23.8863
 20
-7.5428
 30
0.0
 10
-23.8863
 20
-7.5428
 30
0.0
 10
-23.8863
 20
-7.5428
 30
0.0
 10
-23.8863
 20
-7.5428
 30
0.0
 10
-23.8863
 20
-2.5108
 30
0.0
 10
-23.8863
 20
-2.5108
 30
0.0
 10
-23.8863
 20
-2.5108
 30
0.0
 10
-23.8863
 20
-2.5108
 30
0.0
 10
-23.8863
 20
-2.1777
 30
0.0
 10
-23.8863
 20
-2.1777
 30
0.0
 10
-23.8863
 20
-2.1777
 30
0.0
 10
-23.8863
 20
-2.1777
 30
0.0
 10
-23.885
 20
-2.1632
 30
0.0
 10
-23.885
 20
-2.1632
 30
0.0
  0
SPLINE
  5
4D
330
1F
100
AcDbEntity
  8
VRSTVA_1
100
AcDbSpline
210
0.0
220
0.0
230
1.0
 70
     8
 71
     3
 72
     8
 73
     4
 74
     0
 42
0.0000000001
 43
0.0000000001
 40
0.0
 40
0.0
 40
0.0
 40
0.0
 40
1.0
 40
1.0
 40
1.0
 40
1.0
 10
-23.885
 20
-2.1632
 30
0.0
 10
-23.878
 20
-2.1237
 30
0.0
 10
-23.8429
 20
-2.0945
 30
0.0
 10
-23.803
 20
-2.0943
 30
0.0
  0
SPLINE
  5
4E
330
1F
100
AcDbEntity
  8
VRSTVA_1
100
AcDbSpline
210
0.0
220
0.0
230
1.0
 70
     8
 71
     3
 72
    20
 73
    16
 74
     0
 42
0.0000000001
 43
0.0000000001
 40
0.0
 40
0.0
 40
0.0
 40
0.0
 40
0.2
 40
0.2
 40
0.2
 40
0.2
 40
0.4
 40
0.4
 40
0.4
 40
0.4
 40
0.6
 40
0.6
 40
0.6
 40
0.6
 40
1.0
 40
1.0
 40
1.0
 40
1.0
 10
-23.803
 20
-2.0943
 30
0.0
 10
-23.803
 20
-2.0943
 30
0.0
 10
-20.0063
 20
-2.0943
 30
0.0
 10
-20.0063
 20
-2.0943
 30
0.0
 10
-20.0063
 20
-2.0943
 30
0.0
 10
-20.0063
 20
-2.0943
 30
0.0
 10
9.8744
 20
-2.0943
 30
0.0
 10
9.8744
 20
-2.0943
 30
0.0
 10
9.8744
 20
-2.0943
 30
0.0
 10
9.8744
 20
-2.0943
 30
0.0
 10
13.671
 20
-2.0943
 30
0.0
 10
13.671
 20
-2.0943
 30
0.0
 10
13.671
 20
-2.0943
 30
0.0
 10
13.671
 20
-2.0943
 30
0.0
 10
13.8666
 20
-2.0954
 30
0.0
 10
13.8666
 20
-2.0954
 30
0.0
  0
SPLINE
  5
4F
330
1F
100
AcDbEntity
  8
VRSTVA_1
100
AcDbSpline
210
0.0
220
0.0
230
1.0
 70
     8
 71
     3
 72
    28
 73
    24
 74
     0
 42
0.0000000001
 43
0.0000000001
 40
0.0
 40
0.0
 40
0.0
 40
0.0
 40
0.1428571428571428
 40
0.1428571428571428
 40
0.1428571428571428
 40
0.1428571428571428
 40
0.2857142857142857
 40
0.2857142857142857
 40
0.2857142857142857
 40
0.2857142857142857
 40
0.4285714285714285
 40
0.4285714285714285
 40
0.4285714285714285
 40
0.4285714285714285
 40
0.5714285714285714
 40
0.5714285714285714
 40
0.5714285714285714
 40
0.5714285714285714
 40
0.7142857142857143
 40
0.7142857142857143
 40
0.7142857142857143
 40
0.7142857142857143
 40
1.0
 40
1.0
 40
1.0
 40
1.0
 10
0.3877
 20
-7.9467
 30
0.0
 10
0.3877
 20
-7.9467
 30
0.0
 10
0.388
 20
-7.4483
 30
0.0
 10
0.388
 20
-7.4483
 30
0.0
 10
0.388
 20
-7.4483
 30
0.0
 10
0.388
 20
-7.4483
 30
0.0
 10
0.3889
 20
-7.4073
 30
0.0
 10
0.3889
 20
-7.4073
 30
0.0
 10
0.3889
 20
-7.4073
 30
0.0
 10
0.3889
 20
-7.4073
 30
0.0
 10
0.3959
 20
-7.3945
 30
0.0
 10
0.3959
 20
-7.3945
 30
0.0
 10
0.3959
 20
-7.3945
 30
0.0
 10
0.3959
 20
-7.3945
 30
0.0
 10
0.3959
 20
-6.8715
 30
0.0
 10
0.3959
 20
-6.8715
 30
0.0
 10
0.3959
 20
-6.8715
 30
0.0
 10
0.3959
 20
-6.8715
 30
0.0
 10
0.3959
 20
-2.6504
 30
0.0
 10
0.3959
 20
-2.6504
 30
0.0
 10
0.3959
 20
-2.6504
 30
0.0
 10
0.3959
 20
-2.6504
 30
0.0
 10
0.3959
 20
-2.1274
 30
0.0
 10
0.3959
 20
-2.1274
 30
0.0
  0
SPLINE
  5
50
330
1F
100
AcDbEntity
  8
VRSTVA_1
100
AcDbSpline
210
0.0
220
0.0
230
1.0
 70
     8
 71
     3
 72
    28
 73
    24
 74
     0
 42
0.0000000001
 43
0.0000000001
 40
0.0
 40
0.0
 40
0.0
 40
0.0
 40
0.1428571428571428
 40
0.1428571428571428
 40
0.1428571428571428
 40
0.1428571428571428
 40
0.2857142857142857
 40
0.2857142857142857
 40
0.2857142857142857
 40
0.2857142857142857
 40
0.4285714285714285
 40
0.4285714285714285
 40
0.4285714285714285
 40
0.4285714285714285
 40
0.5714285714285714
 40
0.5714285714285714
 40
0.5714285714285714
 40
0.5714285714285714
 40
0.7142857142857143
 40
0.7142857142857143
 40
0.7142857142857143
 40
0.7142857142857143
 40
1.0
 40
1.0
 40
1.0
 40
1.0
 10
0.5686
 20
-7.932
 30
0.0
 10
0.5686
 20
-7.932
 30
0.0
 10
0.5689
 20
-7.4336
 30
0.0
 10
0.5689
 20
-7.4336
 30
0.0
 10
0.5689
 20
-7.4336
 30
0.0
 10
0.5689
 20
-7.4336
 30
0.0
 10
0.5698
 20
-7.3926
 30
0.0
 10
0.5698
 20
-7.3926
 30
0.0
 10
0.5698
 20
-7.3926
 30
0.0
 10
0.5698
 20
-7.3926
 30
0.0
 10
0.5768
 20
-7.3798
 30
0.0
 10
0.5768
 20
-7.3798
 30
0.0
 10
0.5768
 20
-7.3798
 30
0.0
 10
0.5768
 20
-7.3798
 30
0.0
 10
0.5768
 20
-6.8568
 30
0.0
 10
0.5768
 20
-6.8568
 30
0.0
 10
0.5768
 20
-6.8568
 30
0.0
 10
0.5768
 20
-6.8568
 30
0.0
 10
0.5768
 20
-2.6357
 30
0.0
 10
0.5768
 20
-2.6357
 30
0.0
 10
0.5768
 20
-2.6357
 30
0.0
 10
0.5768
 20
-2.6357
 30
0.0
 10
0.5768
 20
-2.1127
 30
0.0
 10
0.5768
 20
-2.1127
 30
0.0
  0
SPLINE
  5
51
330
1F
100
AcDbEntity
  8
VRSTVA_1
100
AcDbSpline
210
0.0
220
0.0
230
1.0
 70
     8
 71
     3
 72
    16
 73
    12
 74
     0
 42
0.0000000001
 43
0.0000000001
 40
0.0
 40
0.0
 40
0.0
 40
0.0
 40
0.25
 40
0.25
 40
0.25
 40
0.25
 40
0.5
 40
0.5
 40
0.5
 40
0.5
 40
1.0
 40
1.0
 40
1.0
 40
1.0
 10
-20.4913
 20
-7.9594
 30
0.0
 10
-20.4913
 20
-7.9594
 30
0.0
 10
-16.7011
 20
-7.959
 30
0.0
 10
-16.7011
 20
-7.959
 30
0.0
 10
-16.7011
 20
-7.959
 30
0.0
 10
-16.7011
 20
-7.959
 30
0.0
 10
13.2889
 20
-7.9561
 30
0.0
 10
13.2889
 20
-7.9561
 30
0.0
 10
13.2889
 20
-7.9561
 30
0.0
 10
13.2889
 20
-7.9561
 30
0.0
 10
17.0791
 20
-7.9557
 30
0.0
 10
17.0791
 20
-7.9557
 30
0.0
  0
SPLINE
  5
52
330
1F
100
AcDbEntity
  8
VRSTVA_1
100
AcDbSpline
210
0.0
220
0.0
230
1.0
 70
     8
 71
     3
 72
    12
 73
     8
 74
     0
 42
0.0000000001
 43
0.0000000001
 40
0.0
 40
0.0
 40
0.0
 40
0.0
 40
0.3333333333333333
 40
0.3333333333333333
 40
0.3333333333333333
 40
0.3333333333333333
 40
1.0
 40
1.0
 40
1.0
 40
1.0
 10
17.0791
 20
-7.9557
 30
0.0
 10
17.1087
 20
-7.9555
 30
0.0
 10
17.1365
 20
-7.9397
 30
0.0
 10
17.1513
 20
-7.914
 30
0.0
 10
17.1513
 20
-7.914
 30
0.0
 10
17.1586
 20
-7.9013
 30
0.0
 10
17.1624
 20
-7.8869
 30
0.0
 10
17.1624
 20
-7.8724
 30
0.0
  0
SPLINE
  5
53
330
1F
100
AcDbEntity
  8
VRSTVA_1
100
AcDbSpline
210
0.0
220
0.0
230
1.0
 70
    24
 71
     3
 72
    16
 73
    12
 74
     0
 42
0.0000000001
 43
0.0000000001
 40
0.0
 40
0.0
 40
0.0
 40
0.0
 40
0.25
 40
0.25
 40
0.25
 40
0.25
 40
0.5
 40
0.5
 40
0.5
 40
0.5
 40
1.0
 40
1.0
 40
1.0
 40
1.0
 10
17.1624
 20
-7.8724
 30
0.0
 10
17.1624
 20
-7.8724
 30
0.0
 10
17.1624
 20
-7.5392
 30
0.0
 10
17.1624
 20
-7.5392
 30
0.0
 10
17.1624
 20
-7.5392
 30
0.0
 10
17.1624
 20
-7.5392
 30
0.0
 10
17.1624
 20
-2.5145
 30
0.0
 10
17.1624
 20
-2.5145
 30
0.0
 10
17.1624
 20
-2.5145
 30
0.0
 10
17.1624
 20
-2.5145
 30
0.0
 10
17.1624
 20
-2.1813
 30
0.0
 10
17.1624
 20
-2.1813
 30
0.0
  0
SPLINE
  5
54
330
1F
100
AcDbEntity
  8
VRSTVA_1
100
AcDbSpline
210
0.0
220
0.0
230
1.0
 70
     8
 71
     3
 72
     8
 73
     4
 74
     0
 42
0.0000000001
 43
0.0000000001
 40
0.0
 40
0.0
 40
0.0
 40
0.0
 40
1.0
 40
1.0
 40
1.0
 40
1.0
 10
17.1624
 20
-2.1813
 30
0.0
 10
17.1624
 20
-2.1518
 30
0.0
 10
17.1463
 20
-2.1239
 30
0.0
 10
17.1208
 20
-2.1092
 30
0.0
  0
SPLINE
  5
55
330
1F
100
AcDbEntity
  8
VRSTVA_1
100
AcDbSpline
210
0.0
220
0.0
230
1.0
 70
     8
 71
     3
 72
    20
 73
    16
 74
     0
 42
0.0000000001
 43
0.0000000001
 40
0.0
 40
0.0
 40
0.0
 40
0.0
 40
0.2
 40
0.2
 40
0.2
 40
0.2
 40
0.4
 40
0.4
 40
0.4
 40
0.4
 40
0.6
 40
0.6
 40
0.6
 40
0.6
 40
1.0
 40
1.0
 40
1.0
 40
1.0
 10
17.1208
 20
-2.1092
 30
0.0
 10
17.1208
 20
-2.1092
 30
0.0
 10
17.0936
 20
-2.0992
 30
0.0
 10
17.0936
 20
-2.0992
 30
0.0
 10
17.0936
 20
-2.0992
 30
0.0
 10
17.0936
 20
-2.0992
 30
0.0
 10
16.7603
 20
-2.0988
 30
0.0
 10
16.7603
 20
-2.0988
 30
0.0
 10
16.7603
 20
-2.0988
 30
0.0
 10
16.7603
 20
-2.0988
 30
0.0
 10
14.1091
 20
-2.0947
 30
0.0
 10
14.1091
 20
-2.0947
 30
0.0
 10
14.1091
 20
-2.0947
 30
0.0
 10
14.1091
 20
-2.0947
 30
0.0
 10
13.7759
 20
-2.0942
 30
0.0
 10
13.7759
 20
-2.0942
 30
0.0
  0
SPLINE
  5
56
330
1F
100
AcDbEntity
  8
VRSTVA_1
 62
   250
100
AcDbSpline
210
0.0
220
0.0
230
1.0
 70
    11
 71
     3
 72
    20
 73
    16
 74
     0
 42
0.0000000001
 43
0.0000000001
 40
0.0
 40
0.0
 40
0.0
 40
0.0
 40
0.2
 40
0.2
 40
0.2
 40
0.2
 40
0.4
 40
0.4
 40
0.4
 40
0.4
 40
0.6
 40
0.6
 40
0.6
 40
0.6
 40
1.0
 40
1.0
 40
1.0
 40
1.0
 10
-30.1053
 20
-11.1474
 30
0.0
 10
-30.1053
 20
-11.1474
 30
0.0
 10
-30.5287
 20
-14.1476
 30
0.0
 10
-30.5287
 20
-14.1476
 30
0.0
 10
-30.5287
 20
-14.1476
 30
0.0
 10
-30.5287
 20
-14.1476
 30
0.0
 10
-30.6227
 20
-14.1476
 30
0.0
 10
-30.6227
 20
-14.1476
 30
0.0
 10
-30.6227
 20
-14.1476
 30
0.0
 10
-30.6227
 20
-14.1476
 30
0.0
 10
-31.0743
 20
-11.1474
 30
0.0
 10
-31.0743
 20
-11.1474
 30
0.0
 10
-31.0743
 20
-11.1474
 30
0.0
 10
-31.0743
 20
-11.1474
 30
0.0
 10
-30.1053
 20
-11.1474
 30
0.0
 10
-30.1053
 20
-11.1474
 30
0.0
  0
SPLINE
  5
57
330
1F
100
AcDbEntity
  8
VRSTVA_1
 62
   250
100
AcDbSpline
210
0.0
220
0.0
230
1.0
 70
    11
 71
     3
 72
    20
 73
    16
 74
     0
 42
0.0000000001
 43
0.0000000001
 40
0.0
 40
0.0
 40
0.0
 40
0.0
 40
0.2
 40
0.2
 40
0.2
 40
0.2
 40
0.4
 40
0.4
 40
0.4
 40
0.4
 40
0.6
 40
0.6
 40
0.6
 40
0.6
 40
1.0
 40
1.0
 40
1.0
 40
1.0
 10
-31.0295
 20
10.1714
 30
0.0
 10
-31.0295
 20
10.1714
 30
0.0
 10
-30.6061
 20
13.1717
 30
0.0
 10
-30.6061
 20
13.1717
 30
0.0
 10
-30.6061
 20
13.1717
 30
0.0
 10
-30.6061
 20
13.1717
 30
0.0
 10
-30.512
 20
13.1717
 30
0.0
 10
-30.512
 20
13.1717
 30
0.0
 10
-30.512
 20
13.1717
 30
0.0
 10
-30.512
 20
13.1717
 30
0.0
 10
-30.0605
 20
10.1714
 30
0.0
 10
-30.0605
 20
10.1714
 30
0.0
 10
-30.0605
 20
10.1714
 30
0.0
 10
-30.0605
 20
10.1714
 30
0.0
 10
-31.0295
 20
10.1714
 30
0.0
 10
-31.0295
 20
10.1714
 30
0.0
  0
SPLINE
  5
58
330
1F
100
AcDbEntity
  8
VRSTVA_1
 62
   250
100
AcDbSpline
210
0.0
220
0.0
230
1.0
 70
    11
 71
     3
 72
    20
 73
    16
 74
     0
 42
0.0000000001
 43
0.0000000001
 40
0.0
 40
0.0
 40
0.0
 40
0.0
 40
0.2
 40
0.2
 40
0.2
 40
0.2
 40
0.4
 40
0.4
 40
0.4
 40
0.4
 40
0.6
 40
0.6
 40
0.6
 40
0.6
 40
1.0
 40
1.0
 40
1.0
 40
1.0
 10
14.1035
 20
17.0672
 30
0.0
 10
14.1035
 20
17.0672
 30
0.0
 10
17.1065
 20
16.6434
 30
0.0
 10
17.1065
 20
16.6434
 30
0.0
 10
17.1065
 20
16.6434
 30
0.0
 10
17.1065
 20
16.6434
 30
0.0
 10
17.1065
 20
16.5493
 30
0.0
 10
17.1065
 20
16.5493
 30
0.0
 10
17.1065
 20
16.5493
 30
0.0
 10
17.1065
 20
16.5493
 30
0.0
 10
14.1035
 20
16.0973
 30
0.0
 10
14.1035
 20
16.0973
 30
0.0
 10
14.1035
 20
16.0973
 30
0.0
 10
14.1035
 20
16.0973
 30
0.0
 10
14.1035
 20
17.0672
 30
0.0
 10
14.1035
 20
17.0672
 30
0.0
  0
SPLINE
  5
59
330
1F
100
AcDbEntity
  8
VRSTVA_1
 62
   250
100
AcDbSpline
210
0.0
220
0.0
230
1.0
 70
    11
 71
     3
 72
    20
 73
    16
 74
     0
 42
0.0000000001
 43
0.0000000001
 40
0.0
 40
0.0
 40
0.0
 40
0.0
 40
0.2
 40
0.2
 40
0.2
 40
0.2
 40
0.4
 40
0.4
 40
0.4
 40
0.4
 40
0.6
 40
0.6
 40
0.6
 40
0.6
 40
1.0
 40
1.0
 40
1.0
 40
1.0
 10
-2.5428
 20
-17.9162
 30
0.0
 10
-2.5428
 20
-17.9162
 30
0.0
 10
0.4602
 20
-18.34
 30
0.0
 10
0.4602
 20
-18.34
 30
0.0
 10
0.4602
 20
-18.34
 30
0.0
 10
0.4602
 20
-18.34
 30
0.0
 10
0.4602
 20
-18.4341
 30
0.0
 10
0.4602
 20
-18.4341
 30
0.0
 10
0.4602
 20
-18.4341
 30
0.0
 10
0.4602
 20
-18.4341
 30
0.0
 10
-2.5428
 20
-18.8861
 30
0.0
 10
-2.5428
 20
-18.8861
 30
0.0
 10
-2.5428
 20
-18.8861
 30
0.0
 10
-2.5428
 20
-18.8861
 30
0.0
 10
-2.5428
 20
-17.9162
 30
0.0
 10
-2.5428
 20
-17.9162
 30
0.0
  0
SPLINE
  5
5A
330
1F
100
AcDbEntity
  8
VRSTVA_1
 62
   250
100
AcDbSpline
210
0.0
220
0.0
230
1.0
 70
    11
 71
     3
 72
    20
 73
    16
 74
     0
 42
0.0000000001
 43
0.0000000001
 40
0.0
 40
0.0
 40
0.0
 40
0.0
 40
0.2
 40
0.2
 40
0.2
 40
0.2
 40
0.4
 40
0.4
 40
0.4
 40
0.4
 40
0.6
 40
0.6
 40
0.6
 40
0.6
 40
1.0
 40
1.0
 40
1.0
 40
1.0
 10
-20.8644
 20
16.1193
 30
0.0
 10
-20.8644
 20
16.1193
 30
0.0
 10
-23.8644
 20
16.5426
 30
0.0
 10
-23.8644
 20
16.5426
 30
0.0
 10
-23.8644
 20
16.5426
 30
0.0
 10
-23.8644
 20
16.5426
 30
0.0
 10
-23.8644
 20
16.6367
 30
0.0
 10
-23.8644
 20
16.6367
 30
0.0
 10
-23.8644
 20
16.6367
 30
0.0
 10
-23.8644
 20
16.6367
 30
0.0
 10
-20.8644
 20
17.0882
 30
0.0
 10
-20.8644
 20
17.0882
 30
0.0
 10
-20.8644
 20
17.0882
 30
0.0
 10
-20.8644
 20
17.0882
 30
0.0
 10
-20.8644
 20
16.1193
 30
0.0
 10
-20.8644
 20
16.1193
 30
0.0
  0
SPLINE
  5
5B
330
1F
100
AcDbEntity
  8
VRSTVA_1
 62
   250
100
AcDbSpline
210
0.0
220
0.0
230
1.0
 70
    11
 71
     3
 72
    20
 73
    16
 74
     0
 42
0.0000000001
 43
0.0000000001
 40
0.0
 40
0.0
 40
0.0
 40
0.0
 40
0.2
 40
0.2
 40
0.2
 40
0.2
 40
0.4
 40
0.4
 40
0.4
 40
0.4
 40
0.6
 40
0.6
 40
0.6
 40
0.6
 40
1.0
 40
1.0
 40
1.0
 40
1.0
 10
-20.8584
 20
-18.8971
 30
0.0
 10
-20.8584
 20
-18.8971
 30
0.0
 10
-23.8584
 20
-18.4738
 30
0.0
 10
-23.8584
 20
-18.4738
 30
0.0
 10
-23.8584
 20
-18.4738
 30
0.0
 10
-23.8584
 20
-18.4738
 30
0.0
 10
-23.8584
 20
-18.3797
 30
0.0
 10
-23.8584
 20
-18.3797
 30
0.0
 10
-23.8584
 20
-18.3797
 30
0.0
 10
-23.8584
 20
-18.3797
 30
0.0
 10
-20.8584
 20
-17.9282
 30
0.0
 10
-20.8584
 20
-17.9282
 30
0.0
 10
-20.8584
 20
-17.9282
 30
0.0
 10
-20.8584
 20
-17.9282
 30
0.0
 10
-20.8584
 20
-18.8971
 30
0.0
 10
-20.8584
 20
-18.8971
 30
0.0
  0
SPLINE
  5
5C
330
1F
100
AcDbEntity
  8
VRSTVA_1
 62
   250
100
AcDbSpline
210
0.0
220
0.0
230
1.0
 70
    24
 71
     3
 72
     8
 73
     4
 74
     0
 42
0.0000000001
 43
0.0000000001
 40
0.0
 40
0.0
 40
0.0
 40
0.0
 40
1.0
 40
1.0
 40
1.0
 40
1.0
 10
-24.4315
 20
-14.2003
 30
0.0
 10
-24.4315
 20
-14.2003
 30
0.0
 10
-30.8152
 20
-14.2003
 30
0.0
 10
-30.8152
 20
-14.2003
 30
0.0
  0
SPLINE
  5
5D
330
1F
100
AcDbEntity
  8
VRSTVA_1
 62
   250
100
AcDbSpline
210
0.0
220
0.0
230
1.0
 70
    24
 71
     3
 72
     8
 73
     4
 74
     0
 42
0.0000000001
 43
0.0000000001
 40
0.0
 40
0.0
 40
0.0
 40
0.0
 40
1.0
 40
1.0
 40
1.0
 40
1.0
 10
-24.4977
 20
13.2709
 30
0.0
 10
-24.4977
 20
13.2709
 30
0.0
 10
-30.8152
 20
13.2709
 30
0.0
 10
-30.8152
 20
13.2709
 30
0.0
  0
SPLINE
  5
5E
330
1F
100
AcDbEntity
  8
VRSTVA_1
 62
   250
100
AcDbSpline
210
0.0
220
0.0
230
1.0
 70
    24
 71
     3
 72
     8
 73
     4
 74
     0
 42
0.0000000001
 43
0.0000000001
 40
0.0
 40
0.0
 40
0.0
 40
0.0
 40
1.0
 40
1.0
 40
1.0
 40
1.0
 10
-30.5773
 20
13.2709
 30
0.0
 10
-30.5773
 20
13.2709
 30
0.0
 10
-30.5773
 20
-13.7736
 30
0.0
 10
-30.5773
 20
-13.7736
 30
0.0
  0
SPLINE
  5
5F
330
1F
100
AcDbEntity
  8
VRSTVA_1
 62
   250
100
AcDbSpline
210
0.0
220
0.0
230
1.0
 70
    24
 71
     3
 72
     8
 73
     4
 74
     0
 42
0.0000000001
 43
0.0000000001
 40
0.0
 40
0.0
 40
0.0
 40
0.0
 40
1.0
 40
1.0
 40
1.0
 40
1.0
 10
17.1775
 20
13.7004
 30
0.0
 10
17.1775
 20
13.7004
 30
0.0
 10
17.1775
 20
17.2061
 30
0.0
 10
17.1775
 20
17.2061
 30
0.0
  0
SPLINE
  5
60
330
1F
100
AcDbEntity
  8
VRSTVA_1
 62
   250
100
AcDbSpline
210
0.0
220
0.0
230
1.0
 70
    24
 71
     3
 72
     8
 73
     4
 74
     0
 42
0.0000000001
 43
0.0000000001
 40
0.0
 40
0.0
 40
0.0
 40
0.0
 40
1.0
 40
1.0
 40
1.0
 40
1.0
 10
0.5147
 20
-19.0255
 30
0.0
 10
0.5147
 20
-19.0255
 30
0.0
 10
0.5147
 20
-8.3288
 30
0.0
 10
0.5147
 20
-8.3288
 30
0.0
  0
SPLINE
  5
61
330
1F
100
AcDbEntity
  8
VRSTVA_1
 62
   250
100
AcDbSpline
210
0.0
220
0.0
230
1.0
 70
    24
 71
     3
 72
     8
 73
     4
 74
     0
 42
0.0000000001
 43
0.0000000001
 40
0.0
 40
0.0
 40
0.0
 40
0.0
 40
1.0
 40
1.0
 40
1.0
 40
1.0
 10
-23.9458
 20
13.8989
 30
0.0
 10
-23.9458
 20
13.8989
 30
0.0
 10
-23.9458
 20
17.0737
 30
0.0
 10
-23.9458
 20
17.0737
 30
0.0
  0
SPLINE
  5
62
330
1F
100
AcDbEntity
  8
VRSTVA_1
 62
   250
100
AcDbSpline
210
0.0
220
0.0
230
1.0
 70
    24
 71
     3
 72
     8
 73
     4
 74
     0
 42
0.0000000001
 43
0.0000000001
 40
0.0
 40
0.0
 40
0.0
 40
0.0
 40
1.0
 40
1.0
 40
1.0
 40
1.0
 10
-23.9391
 20
-18.7443
 30
0.0
 10
-23.9391
 20
-18.7443
 30
0.0
 10
-23.9391
 20
-14.8094
 30
0.0
 10
-23.9391
 20
-14.8094
 30
0.0
  0
SPLINE
  5
63
330
1F
100
AcDbEntity
  8
VRSTVA_1
 62
   250
100
AcDbSpline
210
0.0
220
0.0
230
1.0
 70
    24
 71
     3
 72
     8
 73
     4
 74
     0
 42
0.0000000001
 43
0.0000000001
 40
0.0
 40
0.0
 40
0.0
 40
0.0
 40
1.0
 40
1.0
 40
1.0
 40
1.0
 10
17.1775
 20
16.602
 30
0.0
 10
17.1775
 20
16.602
 30
0.0
 10
-23.5526
 20
16.602
 30
0.0
 10
-23.5526
 20
16.602
 30
0.0
  0
SPLINE
  5
64
330
1F
100
AcDbEntity
  8
VRSTVA_1
 62
   250
100
AcDbSpline
210
0.0
220
0.0
230
1.0
 70
    24
 71
     3
 72
     8
 73
     4
 74
     0
 42
0.0000000001
 43
0.0000000001
 40
0.0
 40
0.0
 40
0.0
 40
0.0
 40
1.0
 40
1.0
 40
1.0
 40
1.0
 10
0.1412
 20
-18.4144
 30
0.0
 10
0.1412
 20
-18.4144
 30
0.0
 10
-23.5466
 20
-18.4144
 30
0.0
 10
-23.5466
 20
-18.4144
 30
0.0
  0
SPLINE
  5
65
330
1F
100
AcDbEntity
  8
VRSTVA_1
 62
   250
100
AcDbSpline
210
0.0
220
0.0
230
1.0
 70
    11
 71
     3
 72
    92
 73
    88
 74
     0
 42
0.0000000001
 43
0.0000000001
 40
0.0
 40
0.0
 40
0.0
 40
0.0
 40
0.0434782608695652
 40
0.0434782608695652
 40
0.0434782608695652
 40
0.0434782608695652
 40
0.0869565217391304
 40
0.0869565217391304
 40
0.0869565217391304
 40
0.0869565217391304
 40
0.1304347826086956
 40
0.1304347826086956
 40
0.1304347826086956
 40
0.1304347826086956
 40
0.1739130434782609
 40
0.1739130434782609
 40
0.1739130434782609
 40
0.1739130434782609
 40
0.2173913043478261
 40
0.2173913043478261
 40
0.2173913043478261
 40
0.2173913043478261
 40
0.2608695652173913
 40
0.2608695652173913
 40
0.2608695652173913
 40
0.2608695652173913
 40
0.3043478260869565
 40
0.3043478260869565
 40
0.3043478260869565
 40
0.3043478260869565
 40
0.3478260869565217
 40
0.3478260869565217
 40
0.3478260869565217
 40
0.3478260869565217
 40
0.391304347826087
 40
0.391304347826087
 40
0.391304347826087
 40
0.391304347826087
 40
0.4347826086956522
 40
0.4347826086956522
 40
0.4347826086956522
 40
0.4347826086956522
 40
0.4782608695652174
 40
0.4782608695652174
 40
0.4782608695652174
 40
0.4782608695652174
 40
0.5217391304347826
 40
0.5217391304347826
 40
0.5217391304347826
 40
0.5217391304347826
 40
0.5652173913043478
 40
0.5652173913043478
 40
0.5652173913043478
 40
0.5652173913043478
 40
0.6086956521739131
 40
0.6086956521739131
 40
0.6086956521739131
 40
0.6086956521739131
 40
0.6521739130434783
 40
0.6521739130434783
 40
0.6521739130434783
 40
0.6521739130434783
 40
0.6956521739130435
 40
0.6956521739130435
 40
0.6956521739130435
 40
0.6956521739130435
 40
0.7391304347826086
 40
0.7391304347826086
 40
0.7391304347826086
 40
0.7391304347826086
 40
0.782608695652174
 40
0.782608695652174
 40
0.782608695652174
 40
0.782608695652174
 40
0.8260869565217391
 40
0.8260869565217391
 40
0.8260869565217391
 40
0.8260869565217391
 40
0.8695652173913043
 40
0.8695652173913043
 40
0.8695652173913043
 40
0.8695652173913043
 40
0.9130434782608695
 40
0.9130434782608695
 40
0.9130434782608695
 40
0.9130434782608695
 40
1.0
 40
1.0
 40
1.0
 40
1.0
 10
-4.1854
 20
17.2353
 30
0.0
 10
-4.1854
 20
17.2353
 30
0.0
 10
-4.1854
 20
16.9968
 30
0.0
 10
-4.1854
 20
16.9968
 30
0.0
 10
-4.1854
 20
16.9968
 30
0.0
 10
-4.1854
 20
16.9968
 30
0.0
 10
-5.5208
 20
16.9968
 30
0.0
 10
-5.5208
 20
16.9968
 30
0.0
 10
-5.5208
 20
16.9968
 30
0.0
 10
-5.5227
 20
17.0565
 30
0.0
 10
-5.5133
 20
17.1139
 30
0.0
 10
-5.4921
 20
17.169
 30
0.0
 10
-5.4921
 20
17.169
 30
0.0
 10
-5.4582
 20
17.2602
 30
0.0
 10
-5.4037
 20
17.3496
 30
0.0
 10
-5.3289
 20
17.438
 30
0.0
 10
-5.3289
 20
17.438
 30
0.0
 10
-5.2536
 20
17.526
 30
0.0
 10
-5.1454
 20
17.628
 30
0.0
 10
-5.0043
 20
17.7437
 30
0.0
 10
-5.0043
 20
17.7437
 30
0.0
 10
-4.7847
 20
17.9239
 30
0.0
 10
-4.636
 20
18.0664
 30
0.0
 10
-4.5589
 20
18.1718
 30
0.0
 10
-4.5589
 20
18.1718
 30
0.0
 10
-4.4818
 20
18.2767
 30
0.0
 10
-4.4432
 20
18.3764
 30
0.0
 10
-4.4432
 20
18.47
 30
0.0
 10
-4.4432
 20
18.47
 30
0.0
 10
-4.4432
 20
18.5683
 30
0.0
 10
-4.4785
 20
18.6511
 30
0.0
 10
-4.5485
 20
18.7188
 30
0.0
 10
-4.5485
 20
18.7188
 30
0.0
 10
-4.6191
 20
18.7861
 30
0.0
 10
-4.7108
 20
18.8199
 30
0.0
 10
-4.8237
 20
18.8199
 30
0.0
 10
-4.8237
 20
18.8199
 30
0.0
 10
-4.9432
 20
18.8199
 30
0.0
 10
-5.0387
 20
18.7842
 30
0.0
 10
-5.1102
 20
18.7122
 30
0.0
 10
-5.1102
 20
18.7122
 30
0.0
 10
-5.1821
 20
18.6407
 30
0.0
 10
-5.2183
 20
18.5415
 30
0.0
 10
-5.2193
 20
18.415
 30
0.0
 10
-5.2193
 20
18.415
 30
0.0
 10
-5.2193
 20
18.415
 30
0.0
 10
-5.4742
 20
18.4408
 30
0.0
 10
-5.4742
 20
18.4408
 30
0.0
 10
-5.4742
 20
18.4408
 30
0.0
 10
-5.4568
 20
18.6313
 30
0.0
 10
-5.391
 20
18.7762
 30
0.0
 10
-5.2771
 20
18.8759
 30
0.0
 10
-5.2771
 20
18.8759
 30
0.0
 10
-5.1633
 20
18.9756
 30
0.0
 10
-5.01
 20
19.0255
 30
0.0
 10
-4.8181
 20
19.0255
 30
0.0
 10
-4.8181
 20
19.0255
 30
0.0
 10
-4.6243
 20
19.0255
 30
0.0
 10
-4.4709
 20
18.9714
 30
0.0
 10
-4.358
 20
18.8642
 30
0.0
 10
-4.358
 20
18.8642
 30
0.0
 10
-4.2447
 20
18.7564
 30
0.0
 10
-4.1882
 20
18.6233
 30
0.0
 10
-4.1882
 20
18.4643
 30
0.0
 10
-4.1882
 20
18.4643
 30
0.0
 10
-4.1882
 20
18.3834
 30
0.0
 10
-4.2047
 20
18.3039
 30
0.0
 10
-4.2381
 20
18.2259
 30
0.0
 10
-4.2381
 20
18.2259
 30
0.0
 10
-4.271
 20
18.1478
 30
0.0
 10
-4.3261
 20
18.0655
 30
0.0
 10
-4.4027
 20
17.9794
 30
0.0
 10
-4.4027
 20
17.9794
 30
0.0
 10
-4.4794
 20
17.8928
 30
0.0
 10
-4.6069
 20
17.7743
 30
0.0
 10
-4.7851
 20
17.6238
 30
0.0
 10
-4.7851
 20
17.6238
 30
0.0
 10
-4.9338
 20
17.4987
 30
0.0
 10
-5.0293
 20
17.414
 30
0.0
 10
-5.0716
 20
17.3693
 30
0.0
 10
-5.0716
 20
17.3693
 30
0.0
 10
-5.1139
 20
17.3251
 30
0.0
 10
-5.1487
 20
17.2804
 30
0.0
 10
-5.1765
 20
17.2353
 30
0.0
 10
-5.1765
 20
17.2353
 30
0.0
 10
-5.1765
 20
17.2353
 30
0.0
 10
-4.1854
 20
17.2353
 30
0.0
 10
-4.1854
 20
17.2353
 30
0.0
  0
SPLINE
  5
66
330
1F
100
AcDbEntity
  8
VRSTVA_1
 62
   250
100
AcDbSpline
210
0.0
220
0.0
230
1.0
 70
    11
 71
     3
 72
    48
 73
    44
 74
     0
 42
0.0000000001
 43
0.0000000001
 40
0.0
 40
0.0
 40
0.0
 40
0.0
 40
0.0833333333333333
 40
0.0833333333333333
 40
0.0833333333333333
 40
0.0833333333333333
 40
0.1666666666666667
 40
0.1666666666666667
 40
0.1666666666666667
 40
0.1666666666666667
 40
0.25
 40
0.25
 40
0.25
 40
0.25
 40
0.3333333333333333
 40
0.3333333333333333
 40
0.3333333333333333
 40
0.3333333333333333
 40
0.4166666666666667
 40
0.4166666666666667
 40
0.4166666666666667
 40
0.4166666666666667
 40
0.5
 40
0.5
 40
0.5
 40
0.5
 40
0.5833333333333334
 40
0.5833333333333334
 40
0.5833333333333334
 40
0.5833333333333334
 40
0.6666666666666666
 40
0.6666666666666666
 40
0.6666666666666666
 40
0.6666666666666666
 40
0.75
 40
0.75
 40
0.75
 40
0.75
 40
0.8333333333333334
 40
0.8333333333333334
 40
0.8333333333333334
 40
0.8333333333333334
 40
1.0
 40
1.0
 40
1.0
 40
1.0
 10
-3.1248
 20
16.9968
 30
0.0
 10
-3.1248
 20
16.9968
 30
0.0
 10
-3.1248
 20
17.4803
 30
0.0
 10
-3.1248
 20
17.4803
 30
0.0
 10
-3.1248
 20
17.4803
 30
0.0
 10
-3.1248
 20
17.4803
 30
0.0
 10
-4.0011
 20
17.4803
 30
0.0
 10
-4.0011
 20
17.4803
 30
0.0
 10
-4.0011
 20
17.4803
 30
0.0
 10
-4.0011
 20
17.4803
 30
0.0
 10
-4.0011
 20
17.708
 30
0.0
 10
-4.0011
 20
17.708
 30
0.0
 10
-4.0011
 20
17.708
 30
0.0
 10
-4.0011
 20
17.708
 30
0.0
 10
-3.0791
 20
19.017
 30
0.0
 10
-3.0791
 20
19.017
 30
0.0
 10
-3.0791
 20
19.017
 30
0.0
 10
-3.0791
 20
19.017
 30
0.0
 10
-2.8764
 20
19.017
 30
0.0
 10
-2.8764
 20
19.017
 30
0.0
 10
-2.8764
 20
19.017
 30
0.0
 10
-2.8764
 20
19.017
 30
0.0
 10
-2.8764
 20
17.708
 30
0.0
 10
-2.8764
 20
17.708
 30
0.0
 10
-2.8764
 20
17.708
 30
0.0
 10
-2.8764
 20
17.708
 30
0.0
 10
-2.6036
 20
17.708
 30
0.0
 10
-2.6036
 20
17.708
 30
0.0
 10
-2.6036
 20
17.708
 30
0.0
 10
-2.6036
 20
17.708
 30
0.0
 10
-2.6036
 20
17.4803
 30
0.0
 10
-2.6036
 20
17.4803
 30
0.0
 10
-2.6036
 20
17.4803
 30
0.0
 10
-2.6036
 20
17.4803
 30
0.0
 10
-2.8764
 20
17.4803
 30
0.0
 10
-2.8764
 20
17.4803
 30
0.0
 10
-2.8764
 20
17.4803
 30
0.0
 10
-2.8764
 20
17.4803
 30
0.0
 10
-2.8764
 20
16.9968
 30
0.0
 10
-2.8764
 20
16.9968
 30
0.0
 10
-2.8764
 20
16.9968
 30
0.0
 10
-2.8764
 20
16.9968
 30
0.0
 10
-3.1248
 20
16.9968
 30
0.0
 10
-3.1248
 20
16.9968
 30
0.0
  0
SPLINE
  5
67
330
1F
100
AcDbEntity
  8
VRSTVA_1
 62
   250
100
AcDbSpline
210
0.0
220
0.0
230
1.0
 70
    11
 71
     3
 72
    16
 73
    12
 74
     0
 42
0.0000000001
 43
0.0000000001
 40
0.0
 40
0.0
 40
0.0
 40
0.0
 40
0.25
 40
0.25
 40
0.25
 40
0.25
 40
0.5
 40
0.5
 40
0.5
 40
0.5
 40
1.0
 40
1.0
 40
1.0
 40
1.0
 10
-3.1248
 20
17.708
 30
0.0
 10
-3.1248
 20
17.708
 30
0.0
 10
-3.1248
 20
18.6186
 30
0.0
 10
-3.1248
 20
18.6186
 30
0.0
 10
-3.1248
 20
18.6186
 30
0.0
 10
-3.1248
 20
18.6186
 30
0.0
 10
-3.7569
 20
17.708
 30
0.0
 10
-3.7569
 20
17.708
 30
0.0
 10
-3.7569
 20
17.708
 30
0.0
 10
-3.7569
 20
17.708
 30
0.0
 10
-3.1248
 20
17.708
 30
0.0
 10
-3.1248
 20
17.708
 30
0.0
  0
SPLINE
  5
68
330
1F
100
AcDbEntity
  8
VRSTVA_1
 62
   250
100
AcDbSpline
210
0.0
220
0.0
230
1.0
 70
    11
 71
     3
 72
    48
 73
    44
 74
     0
 42
0.0000000001
 43
0.0000000001
 40
0.0
 40
0.0
 40
0.0
 40
0.0
 40
0.0833333333333333
 40
0.0833333333333333
 40
0.0833333333333333
 40
0.0833333333333333
 40
0.1666666666666667
 40
0.1666666666666667
 40
0.1666666666666667
 40
0.1666666666666667
 40
0.25
 40
0.25
 40
0.25
 40
0.25
 40
0.3333333333333333
 40
0.3333333333333333
 40
0.3333333333333333
 40
0.3333333333333333
 40
0.4166666666666667
 40
0.4166666666666667
 40
0.4166666666666667
 40
0.4166666666666667
 40
0.5
 40
0.5
 40
0.5
 40
0.5
 40
0.5833333333333334
 40
0.5833333333333334
 40
0.5833333333333334
 40
0.5833333333333334
 40
0.6666666666666666
 40
0.6666666666666666
 40
0.6666666666666666
 40
0.6666666666666666
 40
0.75
 40
0.75
 40
0.75
 40
0.75
 40
0.8333333333333334
 40
0.8333333333333334
 40
0.8333333333333334
 40
0.8333333333333334
 40
1.0
 40
1.0
 40
1.0
 40
1.0
 10
-2.3336
 20
18.7522
 30
0.0
 10
-2.3336
 20
18.7522
 30
0.0
 10
-2.3336
 20
18.9907
 30
0.0
 10
-2.3336
 20
18.9907
 30
0.0
 10
-2.3336
 20
18.9907
 30
0.0
 10
-2.3336
 20
18.9907
 30
0.0
 10
-1.026
 20
18.9907
 30
0.0
 10
-1.026
 20
18.9907
 30
0.0
 10
-1.026
 20
18.9907
 30
0.0
 10
-1.026
 20
18.9907
 30
0.0
 10
-1.026
 20
18.7978
 30
0.0
 10
-1.026
 20
18.7978
 30
0.0
 10
-1.026
 20
18.7978
 30
0.0
 10
-1.1544
 20
18.661
 30
0.0
 10
-1.2819
 20
18.4789
 30
0.0
 10
-1.4084
 20
18.2522
 30
0.0
 10
-1.4084
 20
18.2522
 30
0.0
 10
-1.5345
 20
18.0255
 30
0.0
 10
-1.6323
 20
17.7917
 30
0.0
 10
-1.701
 20
17.5523
 30
0.0
 10
-1.701
 20
17.5523
 30
0.0
 10
-1.7508
 20
17.383
 30
0.0
 10
-1.7823
 20
17.1981
 30
0.0
 10
-1.796
 20
16.9968
 30
0.0
 10
-1.796
 20
16.9968
 30
0.0
 10
-1.796
 20
16.9968
 30
0.0
 10
-2.0509
 20
16.9968
 30
0.0
 10
-2.0509
 20
16.9968
 30
0.0
 10
-2.0509
 20
16.9968
 30
0.0
 10
-2.0481
 20
17.1558
 30
0.0
 10
-2.0171
 20
17.3477
 30
0.0
 10
-1.9573
 20
17.573
 30
0.0
 10
-1.9573
 20
17.573
 30
0.0
 10
-1.8976
 20
17.7978
 30
0.0
 10
-1.812
 20
18.0151
 30
0.0
 10
-1.7005
 20
18.224
 30
0.0
 10
-1.7005
 20
18.224
 30
0.0
 10
-1.5886
 20
18.4328
 30
0.0
 10
-1.47
 20
18.6092
 30
0.0
 10
-1.344
 20
18.7522
 30
0.0
 10
-1.344
 20
18.7522
 30
0.0
 10
-1.344
 20
18.7522
 30
0.0
 10
-2.3336
 20
18.7522
 30
0.0
 10
-2.3336
 20
18.7522
 30
0.0
  0
SPLINE
  5
69
330
1F
100
AcDbEntity
  8
VRSTVA_1
 62
   250
100
AcDbSpline
210
0.0
220
0.0
230
1.0
 70
    11
 71
     3
 72
    40
 73
    36
 74
     0
 42
0.0000000001
 43
0.0000000001
 40
0.0
 40
0.0
 40
0.0
 40
0.0
 40
0.1
 40
0.1
 40
0.1
 40
0.1
 40
0.2
 40
0.2
 40
0.2
 40
0.2
 40
0.3
 40
0.3
 40
0.3
 40
0.3
 40
0.4
 40
0.4
 40
0.4
 40
0.4
 40
0.5
 40
0.5
 40
0.5
 40
0.5
 40
0.6
 40
0.6
 40
0.6
 40
0.6
 40
0.7
 40
0.7
 40
0.7
 40
0.7
 40
0.8
 40
0.8
 40
0.8
 40
0.8
 40
1.0
 40
1.0
 40
1.0
 40
1.0
 10
-13.2473
 20
-17.8873
 30
0.0
 10
-13.2473
 20
-17.8873
 30
0.0
 10
-13.4952
 20
-17.8873
 30
0.0
 10
-13.4952
 20
-17.8873
 30
0.0
 10
-13.4952
 20
-17.8873
 30
0.0
 10
-13.4952
 20
-17.8873
 30
0.0
 10
-13.4952
 20
-16.3069
 30
0.0
 10
-13.4952
 20
-16.3069
 30
0.0
 10
-13.4952
 20
-16.3069
 30
0.0
 10
-13.555
 20
-16.3638
 30
0.0
 10
-13.633
 20
-16.4207
 30
0.0
 10
-13.7299
 20
-16.4776
 30
0.0
 10
-13.7299
 20
-16.4776
 30
0.0
 10
-13.8273
 20
-16.5345
 30
0.0
 10
-13.9143
 20
-16.5773
 30
0.0
 10
-13.9915
 20
-16.6056
 30
0.0
 10
-13.9915
 20
-16.6056
 30
0.0
 10
-13.9915
 20
-16.6056
 30
0.0
 10
-13.9915
 20
-16.3661
 30
0.0
 10
-13.9915
 20
-16.3661
 30
0.0
 10
-13.9915
 20
-16.3661
 30
0.0
 10
-13.8527
 20
-16.3008
 30
0.0
 10
-13.7313
 20
-16.2217
 30
0.0
 10
-13.6274
 20
-16.1291
 30
0.0
 10
-13.6274
 20
-16.1291
 30
0.0
 10
-13.5239
 20
-16.0359
 30
0.0
 10
-13.4501
 20
-15.9461
 30
0.0
 10
-13.4068
 20
-15.8586
 30
0.0
 10
-13.4068
 20
-15.8586
 30
0.0
 10
-13.4068
 20
-15.8586
 30
0.0
 10
-13.2473
 20
-15.8586
 30
0.0
 10
-13.2473
 20
-15.8586
 30
0.0
 10
-13.2473
 20
-15.8586
 30
0.0
 10
-13.2473
 20
-15.8586
 30
0.0
 10
-13.2473
 20
-17.8873
 30
0.0
 10
-13.2473
 20
-17.8873
 30
0.0
  0
SPLINE
  5
6A
330
1F
100
AcDbEntity
  8
VRSTVA_1
 62
   250
100
AcDbSpline
210
0.0
220
0.0
230
1.0
 70
    11
 71
     3
 72
    48
 73
    44
 74
     0
 42
0.0000000001
 43
0.0000000001
 40
0.0
 40
0.0
 40
0.0
 40
0.0
 40
0.0833333333333333
 40
0.0833333333333333
 40
0.0833333333333333
 40
0.0833333333333333
 40
0.1666666666666667
 40
0.1666666666666667
 40
0.1666666666666667
 40
0.1666666666666667
 40
0.25
 40
0.25
 40
0.25
 40
0.25
 40
0.3333333333333333
 40
0.3333333333333333
 40
0.3333333333333333
 40
0.3333333333333333
 40
0.4166666666666667
 40
0.4166666666666667
 40
0.4166666666666667
 40
0.4166666666666667
 40
0.5
 40
0.5
 40
0.5
 40
0.5
 40
0.5833333333333334
 40
0.5833333333333334
 40
0.5833333333333334
 40
0.5833333333333334
 40
0.6666666666666666
 40
0.6666666666666666
 40
0.6666666666666666
 40
0.6666666666666666
 40
0.75
 40
0.75
 40
0.75
 40
0.75
 40
0.8333333333333334
 40
0.8333333333333334
 40
0.8333333333333334
 40
0.8333333333333334
 40
1.0
 40
1.0
 40
1.0
 40
1.0
 10
-11.817
 20
-17.8873
 30
0.0
 10
-11.817
 20
-17.8873
 30
0.0
 10
-11.817
 20
-17.4038
 30
0.0
 10
-11.817
 20
-17.4038
 30
0.0
 10
-11.817
 20
-17.4038
 30
0.0
 10
-11.817
 20
-17.4038
 30
0.0
 10
-12.6933
 20
-17.4038
 30
0.0
 10
-12.6933
 20
-17.4038
 30
0.0
 10
-12.6933
 20
-17.4038
 30
0.0
 10
-12.6933
 20
-17.4038
 30
0.0
 10
-12.6933
 20
-17.1761
 30
0.0
 10
-12.6933
 20
-17.1761
 30
0.0
 10
-12.6933
 20
-17.1761
 30
0.0
 10
-12.6933
 20
-17.1761
 30
0.0
 10
-11.7713
 20
-15.8671
 30
0.0
 10
-11.7713
 20
-15.8671
 30
0.0
 10
-11.7713
 20
-15.8671
 30
0.0
 10
-11.7713
 20
-15.8671
 30
0.0
 10
-11.5686
 20
-15.8671
 30
0.0
 10
-11.5686
 20
-15.8671
 30
0.0
 10
-11.5686
 20
-15.8671
 30
0.0
 10
-11.5686
 20
-15.8671
 30
0.0
 10
-11.5686
 20
-17.1761
 30
0.0
 10
-11.5686
 20
-17.1761
 30
0.0
 10
-11.5686
 20
-17.1761
 30
0.0
 10
-11.5686
 20
-17.1761
 30
0.0
 10
-11.2958
 20
-17.1761
 30
0.0
 10
-11.2958
 20
-17.1761
 30
0.0
 10
-11.2958
 20
-17.1761
 30
0.0
 10
-11.2958
 20
-17.1761
 30
0.0
 10
-11.2958
 20
-17.4038
 30
0.0
 10
-11.2958
 20
-17.4038
 30
0.0
 10
-11.2958
 20
-17.4038
 30
0.0
 10
-11.2958
 20
-17.4038
 30
0.0
 10
-11.5686
 20
-17.4038
 30
0.0
 10
-11.5686
 20
-17.4038
 30
0.0
 10
-11.5686
 20
-17.4038
 30
0.0
 10
-11.5686
 20
-17.4038
 30
0.0
 10
-11.5686
 20
-17.8873
 30
0.0
 10
-11.5686
 20
-17.8873
 30
0.0
 10
-11.5686
 20
-17.8873
 30
0.0
 10
-11.5686
 20
-17.8873
 30
0.0
 10
-11.817
 20
-17.8873
 30
0.0
 10
-11.817
 20
-17.8873
 30
0.0
  0
SPLINE
  5
6B
330
1F
100
AcDbEntity
  8
VRSTVA_1
 62
   250
100
AcDbSpline
210
0.0
220
0.0
230
1.0
 70
    11
 71
     3
 72
    16
 73
    12
 74
     0
 42
0.0000000001
 43
0.0000000001
 40
0.0
 40
0.0
 40
0.0
 40
0.0
 40
0.25
 40
0.25
 40
0.25
 40
0.25
 40
0.5
 40
0.5
 40
0.5
 40
0.5
 40
1.0
 40
1.0
 40
1.0
 40
1.0
 10
-11.817
 20
-17.1761
 30
0.0
 10
-11.817
 20
-17.1761
 30
0.0
 10
-11.817
 20
-16.2655
 30
0.0
 10
-11.817
 20
-16.2655
 30
0.0
 10
-11.817
 20
-16.2655
 30
0.0
 10
-11.817
 20
-16.2655
 30
0.0
 10
-12.4491
 20
-17.1761
 30
0.0
 10
-12.4491
 20
-17.1761
 30
0.0
 10
-12.4491
 20
-17.1761
 30
0.0
 10
-12.4491
 20
-17.1761
 30
0.0
 10
-11.817
 20
-17.1761
 30
0.0
 10
-11.817
 20
-17.1761
 30
0.0
  0
SPLINE
  5
6C
330
1F
100
AcDbEntity
  8
VRSTVA_1
 62
   250
100
AcDbSpline
210
0.0
220
0.0
230
1.0
 70
    11
 71
     3
 72
    80
 73
    76
 74
     0
 42
0.0000000001
 43
0.0000000001
 40
0.0
 40
0.0
 40
0.0
 40
0.0
 40
0.05
 40
0.05
 40
0.05
 40
0.05
 40
0.1
 40
0.1
 40
0.1
 40
0.1
 40
0.15
 40
0.15
 40
0.15
 40
0.15
 40
0.2
 40
0.2
 40
0.2
 40
0.2
 40
0.25
 40
0.25
 40
0.25
 40
0.25
 40
0.3
 40
0.3
 40
0.3
 40
0.3
 40
0.35
 40
0.35
 40
0.35
 40
0.35
 40
0.4
 40
0.4
 40
0.4
 40
0.4
 40
0.45
 40
0.45
 40
0.45
 40
0.45
 40
0.5
 40
0.5
 40
0.5
 40
0.5
 40
0.55
 40
0.55
 40
0.55
 40
0.55
 40
0.6
 40
0.6
 40
0.6
 40
0.6
 40
0.65
 40
0.65
 40
0.65
 40
0.65
 40
0.7
 40
0.7
 40
0.7
 40
0.7
 40
0.75
 40
0.75
 40
0.75
 40
0.75
 40
0.8
 40
0.8
 40
0.8
 40
0.8
 40
0.85
 40
0.85
 40
0.85
 40
0.85
 40
0.9
 40
0.9
 40
0.9
 40
0.9
 40
1.0
 40
1.0
 40
1.0
 40
1.0
 10
-9.7554
 20
-16.3619
 30
0.0
 10
-9.7554
 20
-16.3619
 30
0.0
 10
-10.0018
 20
-16.3812
 30
0.0
 10
-10.0018
 20
-16.3812
 30
0.0
 10
-10.0018
 20
-16.3812
 30
0.0
 10
-10.0239
 20
-16.2838
 30
0.0
 10
-10.055
 20
-16.2128
 30
0.0
 10
-10.0954
 20
-16.1691
 30
0.0
 10
-10.0954
 20
-16.1691
 30
0.0
 10
-10.1627
 20
-16.098
 30
0.0
 10
-10.2455
 20
-16.0627
 30
0.0
 10
-10.3438
 20
-16.0627
 30
0.0
 10
-10.3438
 20
-16.0627
 30
0.0
 10
-10.4228
 20
-16.0627
 30
0.0
 10
-10.4919
 20
-16.0849
 30
0.0
 10
-10.5517
 20
-16.1291
 30
0.0
 10
-10.5517
 20
-16.1291
 30
0.0
 10
-10.6298
 20
-16.186
 30
0.0
 10
-10.6914
 20
-16.2692
 30
0.0
 10
-10.7365
 20
-16.3784
 30
0.0
 10
-10.7365
 20
-16.3784
 30
0.0
 10
-10.7812
 20
-16.4875
 30
0.0
 10
-10.8047
 20
-16.6432
 30
0.0
 10
-10.8066
 20
-16.8454
 30
0.0
 10
-10.8066
 20
-16.8454
 30
0.0
 10
-10.7469
 20
-16.7547
 30
0.0
 10
-10.674
 20
-16.6869
 30
0.0
 10
-10.5874
 20
-16.6427
 30
0.0
 10
-10.5874
 20
-16.6427
 30
0.0
 10
-10.5014
 20
-16.599
 30
0.0
 10
-10.4106
 20
-16.5769
 30
0.0
 10
-10.316
 20
-16.5769
 30
0.0
 10
-10.316
 20
-16.5769
 30
0.0
 10
-10.1505
 20
-16.5769
 30
0.0
 10
-10.0098
 20
-16.6375
 30
0.0
 10
-9.8936
 20
-16.7594
 30
0.0
 10
-9.8936
 20
-16.7594
 30
0.0
 10
-9.7775
 20
-16.8812
 30
0.0
 10
-9.7191
 20
-17.0383
 30
0.0
 10
-9.7191
 20
-17.2311
 30
0.0
 10
-9.7191
 20
-17.2311
 30
0.0
 10
-9.7191
 20
-17.3581
 30
0.0
 10
-9.7469
 20
-17.4757
 30
0.0
 10
-9.8015
 20
-17.5849
 30
0.0
 10
-9.8015
 20
-17.5849
 30
0.0
 10
-9.856
 20
-17.6935
 30
0.0
 10
-9.9313
 20
-17.7772
 30
0.0
 10
-10.0268
 20
-17.8351
 30
0.0
 10
-10.0268
 20
-17.8351
 30
0.0
 10
-10.1222
 20
-17.8929
 30
0.0
 10
-10.2304
 20
-17.9216
 30
0.0
 10
-10.3518
 20
-17.9216
 30
0.0
 10
-10.3518
 20
-17.9216
 30
0.0
 10
-10.5587
 20
-17.9216
 30
0.0
 10
-10.7271
 20
-17.8459
 30
0.0
 10
-10.8574
 20
-17.6935
 30
0.0
 10
-10.8574
 20
-17.6935
 30
0.0
 10
-10.9882
 20
-17.5416
 30
0.0
 10
-11.0531
 20
-17.2909
 30
0.0
 10
-11.0531
 20
-16.9419
 30
0.0
 10
-11.0531
 20
-16.9419
 30
0.0
 10
-11.0531
 20
-16.5515
 30
0.0
 10
-10.9811
 20
-16.2678
 30
0.0
 10
-10.8367
 20
-16.0905
 30
0.0
 10
-10.8367
 20
-16.0905
 30
0.0
 10
-10.7111
 20
-15.9362
 30
0.0
 10
-10.5418
 20
-15.8586
 30
0.0
 10
-10.3283
 20
-15.8586
 30
0.0
 10
-10.3283
 20
-15.8586
 30
0.0
 10
-10.1697
 20
-15.8586
 30
0.0
 10
-10.0395
 20
-15.9033
 30
0.0
 10
-9.9379
 20
-15.9927
 30
0.0
 10
-9.9379
 20
-15.9927
 30
0.0
 10
-9.8363
 20
-16.0816
 30
0.0
 10
-9.7756
 20
-16.2048
 30
0.0
 10
-9.7554
 20
-16.3619
 30
0.0
  0
SPLINE
  5
6D
330
1F
100
AcDbEntity
  8
VRSTVA_1
 62
   250
100
AcDbSpline
210
0.0
220
0.0
230
1.0
 70
    11
 71
     3
 72
    40
 73
    36
 74
     0
 42
0.0000000001
 43
0.0000000001
 40
0.0
 40
0.0
 40
0.0
 40
0.0
 40
0.1
 40
0.1
 40
0.1
 40
0.1
 40
0.2
 40
0.2
 40
0.2
 40
0.2
 40
0.3
 40
0.3
 40
0.3
 40
0.3
 40
0.4
 40
0.4
 40
0.4
 40
0.4
 40
0.5
 40
0.5
 40
0.5
 40
0.5
 40
0.6
 40
0.6
 40
0.6
 40
0.6
 40
0.7
 40
0.7
 40
0.7
 40
0.7
 40
0.8
 40
0.8
 40
0.8
 40
0.8
 40
1.0
 40
1.0
 40
1.0
 40
1.0
 10
-10.7681
 20
-17.2325
 30
0.0
 10
-10.7681
 20
-17.3182
 30
0.0
 10
-10.7497
 20
-17.4
 30
0.0
 10
-10.7135
 20
-17.4781
 30
0.0
 10
-10.7135
 20
-17.4781
 30
0.0
 10
-10.6773
 20
-17.5562
 30
0.0
 10
-10.6265
 20
-17.6154
 30
0.0
 10
-10.5616
 20
-17.6563
 30
0.0
 10
-10.5616
 20
-17.6563
 30
0.0
 10
-10.4962
 20
-17.6973
 30
0.0
 10
-10.4275
 20
-17.718
 30
0.0
 10
-10.356
 20
-17.718
 30
0.0
 10
-10.356
 20
-17.718
 30
0.0
 10
-10.2511
 20
-17.718
 30
0.0
 10
-10.1613
 20
-17.6756
 30
0.0
 10
-10.086
 20
-17.591
 30
0.0
 10
-10.086
 20
-17.591
 30
0.0
 10
-10.0108
 20
-17.5063
 30
0.0
 10
-9.9731
 20
-17.3915
 30
0.0
 10
-9.9731
 20
-17.2467
 30
0.0
 10
-9.9731
 20
-17.2467
 30
0.0
 10
-9.9731
 20
-17.107
 30
0.0
 10
-10.0103
 20
-16.9969
 30
0.0
 10
-10.0846
 20
-16.9165
 30
0.0
 10
-10.0846
 20
-16.9165
 30
0.0
 10
-10.1589
 20
-16.836
 30
0.0
 10
-10.2525
 20
-16.796
 30
0.0
 10
-10.3654
 20
-16.796
 30
0.0
 10
-10.3654
 20
-16.796
 30
0.0
 10
-10.4778
 20
-16.796
 30
0.0
 10
-10.5729
 20
-16.836
 30
0.0
 10
-10.6509
 20
-16.9165
 30
0.0
 10
-10.6509
 20
-16.9165
 30
0.0
 10
-10.729
 20
-16.9969
 30
0.0
 10
-10.7681
 20
-17.1023
 30
0.0
 10
-10.7681
 20
-17.2325
 30
0.0
  0
SPLINE
  5
6E
330
1F
100
AcDbEntity
  8
VRSTVA_1
 62
   250
100
AcDbSpline
210
0.0
220
0.0
230
1.0
 70
    11
 71
     3
 72
    40
 73
    36
 74
     0
 42
0.0000000001
 43
0.0000000001
 40
0.0
 40
0.0
 40
0.0
 40
0.0
 40
0.1
 40
0.1
 40
0.1
 40
0.1
 40
0.2
 40
0.2
 40
0.2
 40
0.2
 40
0.3
 40
0.3
 40
0.3
 40
0.3
 40
0.4
 40
0.4
 40
0.4
 40
0.4
 40
0.5
 40
0.5
 40
0.5
 40
0.5
 40
0.6
 40
0.6
 40
0.6
 40
0.6
 40
0.7
 40
0.7
 40
0.7
 40
0.7
 40
0.8
 40
0.8
 40
0.8
 40
0.8
 40
1.0
 40
1.0
 40
1.0
 40
1.0
 10
-30.8233
 20
-1.6392
 30
0.0
 10
-30.8233
 20
-1.6392
 30
0.0
 10
-30.8233
 20
-1.8871
 30
0.0
 10
-30.8233
 20
-1.8871
 30
0.0
 10
-30.8233
 20
-1.8871
 30
0.0
 10
-30.8233
 20
-1.8871
 30
0.0
 10
-32.4037
 20
-1.8871
 30
0.0
 10
-32.4037
 20
-1.8871
 30
0.0
 10
-32.4037
 20
-1.8871
 30
0.0
 10
-32.3468
 20
-1.9469
 30
0.0
 10
-32.2899
 20
-2.0249
 30
0.0
 10
-32.233
 20
-2.1218
 30
0.0
 10
-32.233
 20
-2.1218
 30
0.0
 10
-32.1761
 20
-2.2192
 30
0.0
 10
-32.1333
 20
-2.3062
 30
0.0
 10
-32.105
 20
-2.3834
 30
0.0
 10
-32.105
 20
-2.3834
 30
0.0
 10
-32.105
 20
-2.3834
 30
0.0
 10
-32.3445
 20
-2.3834
 30
0.0
 10
-32.3445
 20
-2.3834
 30
0.0
 10
-32.3445
 20
-2.3834
 30
0.0
 10
-32.4098
 20
-2.2446
 30
0.0
 10
-32.4889
 20
-2.1232
 30
0.0
 10
-32.5815
 20
-2.0193
 30
0.0
 10
-32.5815
 20
-2.0193
 30
0.0
 10
-32.6747
 20
-1.9158
 30
0.0
 10
-32.7645
 20
-1.842
 30
0.0
 10
-32.852
 20
-1.7987
 30
0.0
 10
-32.852
 20
-1.7987
 30
0.0
 10
-32.852
 20
-1.7987
 30
0.0
 10
-32.852
 20
-1.6392
 30
0.0
 10
-32.852
 20
-1.6392
 30
0.0
 10
-32.852
 20
-1.6392
 30
0.0
 10
-32.852
 20
-1.6392
 30
0.0
 10
-30.8233
 20
-1.6392
 30
0.0
 10
-30.8233
 20
-1.6392
 30
0.0
  0
SPLINE
  5
6F
330
1F
100
AcDbEntity
  8
VRSTVA_1
 62
   250
100
AcDbSpline
210
0.0
220
0.0
230
1.0
 70
    11
 71
     3
 72
    80
 73
    76
 74
     0
 42
0.0000000001
 43
0.0000000001
 40
0.0
 40
0.0
 40
0.0
 40
0.0
 40
0.05
 40
0.05
 40
0.05
 40
0.05
 40
0.1
 40
0.1
 40
0.1
 40
0.1
 40
0.15
 40
0.15
 40
0.15
 40
0.15
 40
0.2
 40
0.2
 40
0.2
 40
0.2
 40
0.25
 40
0.25
 40
0.25
 40
0.25
 40
0.3
 40
0.3
 40
0.3
 40
0.3
 40
0.35
 40
0.35
 40
0.35
 40
0.35
 40
0.4
 40
0.4
 40
0.4
 40
0.4
 40
0.45
 40
0.45
 40
0.45
 40
0.45
 40
0.5
 40
0.5
 40
0.5
 40
0.5
 40
0.55
 40
0.55
 40
0.55
 40
0.55
 40
0.6
 40
0.6
 40
0.6
 40
0.6
 40
0.65
 40
0.65
 40
0.65
 40
0.65
 40
0.7
 40
0.7
 40
0.7
 40
0.7
 40
0.75
 40
0.75
 40
0.75
 40
0.75
 40
0.8
 40
0.8
 40
0.8
 40
0.8
 40
0.85
 40
0.85
 40
0.85
 40
0.85
 40
0.9
 40
0.9
 40
0.9
 40
0.9
 40
1.0
 40
1.0
 40
1.0
 40
1.0
 10
-32.3487
 20
0.2831
 30
0.0
 10
-32.3487
 20
0.2831
 30
0.0
 10
-32.3294
 20
0.0367
 30
0.0
 10
-32.3294
 20
0.0367
 30
0.0
 10
-32.3294
 20
0.0367
 30
0.0
 10
-32.4268
 20
0.0146
 30
0.0
 10
-32.4978
 20
-0.0165
 30
0.0
 10
-32.5415
 20
-0.0569
 30
0.0
 10
-32.5415
 20
-0.0569
 30
0.0
 10
-32.6126
 20
-0.1242
 30
0.0
 10
-32.6479
 20
-0.207
 30
0.0
 10
-32.6479
 20
-0.3053
 30
0.0
 10
-32.6479
 20
-0.3053
 30
0.0
 10
-32.6479
 20
-0.3843
 30
0.0
 10
-32.6257
 20
-0.4534
 30
0.0
 10
-32.5815
 20
-0.5132
 30
0.0
 10
-32.5815
 20
-0.5132
 30
0.0
 10
-32.5246
 20
-0.5913
 30
0.0
 10
-32.4414
 20
-0.6529
 30
0.0
 10
-32.3322
 20
-0.698
 30
0.0
 10
-32.3322
 20
-0.698
 30
0.0
 10
-32.2231
 20
-0.7427
 30
0.0
 10
-32.0674
 20
-0.7662
 30
0.0
 10
-31.8652
 20
-0.7681
 30
0.0
 10
-31.8652
 20
-0.7681
 30
0.0
 10
-31.9559
 20
-0.7084
 30
0.0
 10
-32.0237
 20
-0.6355
 30
0.0
 10
-32.0679
 20
-0.5489
 30
0.0
 10
-32.0679
 20
-0.5489
 30
0.0
 10
-32.1116
 20
-0.4629
 30
0.0
 10
-32.1337
 20
-0.3721
 30
0.0
 10
-32.1337
 20
-0.2775
 30
0.0
 10
-32.1337
 20
-0.2775
 30
0.0
 10
-32.1337
 20
-0.112
 30
0.0
 10
-32.0731
 20
0.0287
 30
0.0
 10
-31.9512
 20
0.1449
 30
0.0
 10
-31.9512
 20
0.1449
 30
0.0
 10
-31.8294
 20
0.261
 30
0.0
 10
-31.6723
 20
0.3194
 30
0.0
 10
-31.4795
 20
0.3194
 30
0.0
 10
-31.4795
 20
0.3194
 30
0.0
 10
-31.3525
 20
0.3194
 30
0.0
 10
-31.2349
 20
0.2916
 30
0.0
 10
-31.1257
 20
0.237
 30
0.0
 10
-31.1257
 20
0.237
 30
0.0
 10
-31.0171
 20
0.1825
 30
0.0
 10
-30.9334
 20
0.1072
 30
0.0
 10
-30.8755
 20
0.0117
 30
0.0
 10
-30.8755
 20
0.0117
 30
0.0
 10
-30.8177
 20
-0.0837
 30
0.0
 10
-30.789
 20
-0.1919
 30
0.0
 10
-30.789
 20
-0.3133
 30
0.0
 10
-30.789
 20
-0.3133
 30
0.0
 10
-30.789
 20
-0.5202
 30
0.0
 10
-30.8647
 20
-0.6886
 30
0.0
 10
-31.0171
 20
-0.8189
 30
0.0
 10
-31.0171
 20
-0.8189
 30
0.0
 10
-31.169
 20
-0.9497
 30
0.0
 10
-31.4197
 20
-1.0146
 30
0.0
 10
-31.7687
 20
-1.0146
 30
0.0
 10
-31.7687
 20
-1.0146
 30
0.0
 10
-32.1591
 20
-1.0146
 30
0.0
 10
-32.4428
 20
-0.9426
 30
0.0
 10
-32.6201
 20
-0.7982
 30
0.0
 10
-32.6201
 20
-0.7982
 30
0.0
 10
-32.7744
 20
-0.6726
 30
0.0
 10
-32.852
 20
-0.5033
 30
0.0
 10
-32.852
 20
-0.2898
 30
0.0
 10
-32.852
 20
-0.2898
 30
0.0
 10
-32.852
 20
-0.1312
 30
0.0
 10
-32.8073
 20
-0.001
 30
0.0
 10
-32.7179
 20
0.1006
 30
0.0
 10
-32.7179
 20
0.1006
 30
0.0
 10
-32.629
 20
0.2022
 30
0.0
 10
-32.5058
 20
0.2629
 30
0.0
 10
-32.3487
 20
0.2831
 30
0.0
  0
SPLINE
  5
70
330
1F
100
AcDbEntity
  8
VRSTVA_1
 62
   250
100
AcDbSpline
210
0.0
220
0.0
230
1.0
 70
    11
 71
     3
 72
    40
 73
    36
 74
     0
 42
0.0000000001
 43
0.0000000001
 40
0.0
 40
0.0
 40
0.0
 40
0.0
 40
0.1
 40
0.1
 40
0.1
 40
0.1
 40
0.2
 40
0.2
 40
0.2
 40
0.2
 40
0.3
 40
0.3
 40
0.3
 40
0.3
 40
0.4
 40
0.4
 40
0.4
 40
0.4
 40
0.5
 40
0.5
 40
0.5
 40
0.5
 40
0.6
 40
0.6
 40
0.6
 40
0.6
 40
0.7
 40
0.7
 40
0.7
 40
0.7
 40
0.8
 40
0.8
 40
0.8
 40
0.8
 40
1.0
 40
1.0
 40
1.0
 40
1.0
 10
-31.4781
 20
-0.7296
 30
0.0
 10
-31.3924
 20
-0.7296
 30
0.0
 10
-31.3106
 20
-0.7112
 30
0.0
 10
-31.2325
 20
-0.675
 30
0.0
 10
-31.2325
 20
-0.675
 30
0.0
 10
-31.1544
 20
-0.6388
 30
0.0
 10
-31.0952
 20
-0.588
 30
0.0
 10
-31.0543
 20
-0.5231
 30
0.0
 10
-31.0543
 20
-0.5231
 30
0.0
 10
-31.0133
 20
-0.4577
 30
0.0
 10
-30.9926
 20
-0.389
 30
0.0
 10
-30.9926
 20
-0.3175
 30
0.0
 10
-30.9926
 20
-0.3175
 30
0.0
 10
-30.9926
 20
-0.2126
 30
0.0
 10
-31.035
 20
-0.1228
 30
0.0
 10
-31.1196
 20
-0.0475
 30
0.0
 10
-31.1196
 20
-0.0475
 30
0.0
 10
-31.2043
 20
0.0277
 30
0.0
 10
-31.3191
 20
0.0654
 30
0.0
 10
-31.4639
 20
0.0654
 30
0.0
 10
-31.4639
 20
0.0654
 30
0.0
 10
-31.6036
 20
0.0654
 30
0.0
 10
-31.7137
 20
0.0282
 30
0.0
 10
-31.7941
 20
-0.0461
 30
0.0
 10
-31.7941
 20
-0.0461
 30
0.0
 10
-31.8746
 20
-0.1204
 30
0.0
 10
-31.9146
 20
-0.214
 30
0.0
 10
-31.9146
 20
-0.3269
 30
0.0
 10
-31.9146
 20
-0.3269
 30
0.0
 10
-31.9146
 20
-0.4393
 30
0.0
 10
-31.8746
 20
-0.5344
 30
0.0
 10
-31.7941
 20
-0.6124
 30
0.0
 10
-31.7941
 20
-0.6124
 30
0.0
 10
-31.7137
 20
-0.6905
 30
0.0
 10
-31.6083
 20
-0.7296
 30
0.0
 10
-31.4781
 20
-0.7296
 30
0.0
  0
SPLINE
  5
71
330
1F
100
AcDbEntity
  8
VRSTVA_1
 62
   250
100
AcDbSpline
210
0.0
220
0.0
230
1.0
 70
    11
 71
     3
 72
    92
 73
    88
 74
     0
 42
0.0000000001
 43
0.0000000001
 40
0.0
 40
0.0
 40
0.0
 40
0.0
 40
0.0434782608695652
 40
0.0434782608695652
 40
0.0434782608695652
 40
0.0434782608695652
 40
0.0869565217391304
 40
0.0869565217391304
 40
0.0869565217391304
 40
0.0869565217391304
 40
0.1304347826086956
 40
0.1304347826086956
 40
0.1304347826086956
 40
0.1304347826086956
 40
0.1739130434782609
 40
0.1739130434782609
 40
0.1739130434782609
 40
0.1739130434782609
 40
0.2173913043478261
 40
0.2173913043478261
 40
0.2173913043478261
 40
0.2173913043478261
 40
0.2608695652173913
 40
0.2608695652173913
 40
0.2608695652173913
 40
0.2608695652173913
 40
0.3043478260869565
 40
0.3043478260869565
 40
0.3043478260869565
 40
0.3043478260869565
 40
0.3478260869565217
 40
0.3478260869565217
 40
0.3478260869565217
 40
0.3478260869565217
 40
0.391304347826087
 40
0.391304347826087
 40
0.391304347826087
 40
0.391304347826087
 40
0.4347826086956522
 40
0.4347826086956522
 40
0.4347826086956522
 40
0.4347826086956522
 40
0.4782608695652174
 40
0.4782608695652174
 40
0.4782608695652174
 40
0.4782608695652174
 40
0.5217391304347826
 40
0.5217391304347826
 40
0.5217391304347826
 40
0.5217391304347826
 40
0.5652173913043478
 40
0.5652173913043478
 40
0.5652173913043478
 40
0.5652173913043478
 40
0.6086956521739131
 40
0.6086956521739131
 40
0.6086956521739131
 40
0.6086956521739131
 40
0.6521739130434783
 40
0.6521739130434783
 40
0.6521739130434783
 40
0.6521739130434783
 40
0.6956521739130435
 40
0.6956521739130435
 40
0.6956521739130435
 40
0.6956521739130435
 40
0.7391304347826086
 40
0.7391304347826086
 40
0.7391304347826086
 40
0.7391304347826086
 40
0.782608695652174
 40
0.782608695652174
 40
0.782608695652174
 40
0.782608695652174
 40
0.8260869565217391
 40
0.8260869565217391
 40
0.8260869565217391
 40
0.8260869565217391
 40
0.8695652173913043
 40
0.8695652173913043
 40
0.8695652173913043
 40
0.8695652173913043
 40
0.9130434782608695
 40
0.9130434782608695
 40
0.9130434782608695
 40
0.9130434782608695
 40
1.0
 40
1.0
 40
1.0
 40
1.0
 10
-31.3525
 20
0.5658
 30
0.0
 10
-31.3525
 20
0.5658
 30
0.0
 10
-31.3746
 20
0.8264
 30
0.0
 10
-31.3746
 20
0.8264
 30
0.0
 10
-31.3746
 20
0.8264
 30
0.0
 10
-31.2476
 20
0.8457
 30
0.0
 10
-31.1526
 20
0.8904
 30
0.0
 10
-31.0886
 20
0.9605
 30
0.0
 10
-31.0886
 20
0.9605
 30
0.0
 10
-31.0246
 20
1.031
 30
0.0
 10
-30.9926
 20
1.1157
 30
0.0
 10
-30.9926
 20
1.2149
 30
0.0
 10
-30.9926
 20
1.2149
 30
0.0
 10
-30.9926
 20
1.3344
 30
0.0
 10
-31.0378
 20
1.4355
 30
0.0
 10
-31.1276
 20
1.5178
 30
0.0
 10
-31.1276
 20
1.5178
 30
0.0
 10
-31.2179
 20
1.6006
 30
0.0
 10
-31.3374
 20
1.642
 30
0.0
 10
-31.486
 20
1.642
 30
0.0
 10
-31.486
 20
1.642
 30
0.0
 10
-31.6276
 20
1.642
 30
0.0
 10
-31.7391
 20
1.6025
 30
0.0
 10
-31.8209
 20
1.523
 30
0.0
 10
-31.8209
 20
1.523
 30
0.0
 10
-31.9028
 20
1.4435
 30
0.0
 10
-31.9437
 20
1.3396
 30
0.0
 10
-31.9437
 20
1.2107
 30
0.0
 10
-31.9437
 20
1.2107
 30
0.0
 10
-31.9437
 20
1.1307
 30
0.0
 10
-31.9254
 20
1.0588
 30
0.0
 10
-31.8892
 20
0.9943
 30
0.0
 10
-31.8892
 20
0.9943
 30
0.0
 10
-31.8529
 20
0.9299
 30
0.0
 10
-31.8059
 20
0.8796
 30
0.0
 10
-31.748
 20
0.8429
 30
0.0
 10
-31.748
 20
0.8429
 30
0.0
 10
-31.748
 20
0.8429
 30
0.0
 10
-31.7781
 20
0.61
 30
0.0
 10
-31.7781
 20
0.61
 30
0.0
 10
-31.7781
 20
0.61
 30
0.0
 10
-31.7781
 20
0.61
 30
0.0
 10
-32.8158
 20
0.8057
 30
0.0
 10
-32.8158
 20
0.8057
 30
0.0
 10
-32.8158
 20
0.8057
 30
0.0
 10
-32.8158
 20
0.8057
 30
0.0
 10
-32.8158
 20
1.8104
 30
0.0
 10
-32.8158
 20
1.8104
 30
0.0
 10
-32.8158
 20
1.8104
 30
0.0
 10
-32.8158
 20
1.8104
 30
0.0
 10
-32.5787
 20
1.8104
 30
0.0
 10
-32.5787
 20
1.8104
 30
0.0
 10
-32.5787
 20
1.8104
 30
0.0
 10
-32.5787
 20
1.8104
 30
0.0
 10
-32.5787
 20
1.0042
 30
0.0
 10
-32.5787
 20
1.0042
 30
0.0
 10
-32.5787
 20
1.0042
 30
0.0
 10
-32.5787
 20
1.0042
 30
0.0
 10
-32.0359
 20
0.8951
 30
0.0
 10
-32.0359
 20
0.8951
 30
0.0
 10
-32.0359
 20
0.8951
 30
0.0
 10
-32.1206
 20
1.0164
 30
0.0
 10
-32.1629
 20
1.1439
 30
0.0
 10
-32.1629
 20
1.277
 30
0.0
 10
-32.1629
 20
1.277
 30
0.0
 10
-32.1629
 20
1.4534
 30
0.0
 10
-32.1018
 20
1.602
 30
0.0
 10
-31.9795
 20
1.7234
 30
0.0
 10
-31.9795
 20
1.7234
 30
0.0
 10
-31.8572
 20
1.8447
 30
0.0
 10
-31.7001
 20
1.9054
 30
0.0
 10
-31.5082
 20
1.9054
 30
0.0
 10
-31.5082
 20
1.9054
 30
0.0
 10
-31.3252
 20
1.9054
 30
0.0
 10
-31.1671
 20
1.8518
 30
0.0
 10
-31.034
 20
1.7455
 30
0.0
 10
-31.034
 20
1.7455
 30
0.0
 10
-30.8708
 20
1.6157
 30
0.0
 10
-30.789
 20
1.4388
 30
0.0
 10
-30.789
 20
1.2149
 30
0.0
 10
-30.789
 20
1.2149
 30
0.0
 10
-30.789
 20
1.031
 30
0.0
 10
-30.8402
 20
0.881
 30
0.0
 10
-30.9432
 20
0.7648
 30
0.0
 10
-30.9432
 20
0.7648
 30
0.0
 10
-31.0463
 20
0.6486
 30
0.0
 10
-31.1827
 20
0.5823
 30
0.0
 10
-31.3525
 20
0.5658
 30
0.0
  0
SPLINE
  5
72
330
1F
100
AcDbEntity
  8
VRSTVA_1
 62
   250
100
AcDbSpline
210
0.0
220
0.0
230
1.0
 70
    11
 71
     3
 72
    20
 73
    16
 74
     0
 42
0.0000000001
 43
0.0000000001
 40
0.0
 40
0.0
 40
0.0
 40
0.0
 40
0.2
 40
0.2
 40
0.2
 40
0.2
 40
0.4
 40
0.4
 40
0.4
 40
0.4
 40
0.6
 40
0.6
 40
0.6
 40
0.6
 40
1.0
 40
1.0
 40
1.0
 40
1.0
 10
-26.1218
 20
0.9903
 30
0.0
 10
-26.1218
 20
0.9903
 30
0.0
 10
-26.5452
 20
-2.0099
 30
0.0
 10
-26.5452
 20
-2.0099
 30
0.0
 10
-26.5452
 20
-2.0099
 30
0.0
 10
-26.5452
 20
-2.0099
 30
0.0
 10
-26.6392
 20
-2.0099
 30
0.0
 10
-26.6392
 20
-2.0099
 30
0.0
 10
-26.6392
 20
-2.0099
 30
0.0
 10
-26.6392
 20
-2.0099
 30
0.0
 10
-27.0908
 20
0.9903
 30
0.0
 10
-27.0908
 20
0.9903
 30
0.0
 10
-27.0908
 20
0.9903
 30
0.0
 10
-27.0908
 20
0.9903
 30
0.0
 10
-26.1218
 20
0.9903
 30
0.0
 10
-26.1218
 20
0.9903
 30
0.0
  0
SPLINE
  5
73
330
1F
100
AcDbEntity
  8
VRSTVA_1
 62
   250
100
AcDbSpline
210
0.0
220
0.0
230
1.0
 70
    11
 71
     3
 72
    20
 73
    16
 74
     0
 42
0.0000000001
 43
0.0000000001
 40
0.0
 40
0.0
 40
0.0
 40
0.0
 40
0.2
 40
0.2
 40
0.2
 40
0.2
 40
0.4
 40
0.4
 40
0.4
 40
0.4
 40
0.6
 40
0.6
 40
0.6
 40
0.6
 40
1.0
 40
1.0
 40
1.0
 40
1.0
 10
-27.0626
 20
-11.0118
 30
0.0
 10
-27.0626
 20
-11.0118
 30
0.0
 10
-26.6392
 20
-8.0115
 30
0.0
 10
-26.6392
 20
-8.0115
 30
0.0
 10
-26.6392
 20
-8.0115
 30
0.0
 10
-26.6392
 20
-8.0115
 30
0.0
 10
-26.5451
 20
-8.0115
 30
0.0
 10
-26.5451
 20
-8.0115
 30
0.0
 10
-26.5451
 20
-8.0115
 30
0.0
 10
-26.5451
 20
-8.0115
 30
0.0
 10
-26.0936
 20
-11.0118
 30
0.0
 10
-26.0936
 20
-11.0118
 30
0.0
 10
-26.0936
 20
-11.0118
 30
0.0
 10
-26.0936
 20
-11.0118
 30
0.0
 10
-27.0626
 20
-11.0118
 30
0.0
 10
-27.0626
 20
-11.0118
 30
0.0
  0
SPLINE
  5
74
330
1F
100
AcDbEntity
  8
VRSTVA_1
 62
   250
100
AcDbSpline
210
0.0
220
0.0
230
1.0
 70
    24
 71
     3
 72
     8
 73
     4
 74
     0
 42
0.0000000001
 43
0.0000000001
 40
0.0
 40
0.0
 40
0.0
 40
0.0
 40
1.0
 40
1.0
 40
1.0
 40
1.0
 10
-24.2259
 20
-7.9826
 30
0.0
 10
-24.2259
 20
-7.9826
 30
0.0
 10
-27.1434
 20
-7.9826
 30
0.0
 10
-27.1434
 20
-7.9826
 30
0.0
  0
SPLINE
  5
75
330
1F
100
AcDbEntity
  8
VRSTVA_1
 62
   250
100
AcDbSpline
210
0.0
220
0.0
230
1.0
 70
    24
 71
     3
 72
     8
 73
     4
 74
     0
 42
0.0000000001
 43
0.0000000001
 40
0.0
 40
0.0
 40
0.0
 40
0.0
 40
1.0
 40
1.0
 40
1.0
 40
1.0
 10
-24.3159
 20
-2.0915
 30
0.0
 10
-24.3159
 20
-2.0915
 30
0.0
 10
-27.1434
 20
-2.0915
 30
0.0
 10
-27.1434
 20
-2.0915
 30
0.0
  0
SPLINE
  5
76
330
1F
100
AcDbEntity
  8
VRSTVA_1
 62
   250
100
AcDbSpline
210
0.0
220
0.0
230
1.0
 70
    24
 71
     3
 72
     8
 73
     4
 74
     0
 42
0.0000000001
 43
0.0000000001
 40
0.0
 40
0.0
 40
0.0
 40
0.0
 40
1.0
 40
1.0
 40
1.0
 40
1.0
 10
-26.5773
 20
1.4964
 30
0.0
 10
-26.5773
 20
1.4964
 30
0.0
 10
-26.5773
 20
-11.6997
 30
0.0
 10
-26.5773
 20
-11.6997
 30
0.0
  0
SPLINE
  5
77
330
1F
100
AcDbEntity
  8
VRSTVA_1
 62
   250
100
AcDbSpline
210
0.0
220
0.0
230
1.0
 70
    11
 71
     3
 72
   124
 73
   120
 74
     0
 42
0.0000000001
 43
0.0000000001
 40
0.0
 40
0.0
 40
0.0
 40
0.0
 40
0.032258064516129
 40
0.032258064516129
 40
0.032258064516129
 40
0.032258064516129
 40
0.0645161290322581
 40
0.0645161290322581
 40
0.0645161290322581
 40
0.0645161290322581
 40
0.0967741935483871
 40
0.0967741935483871
 40
0.0967741935483871
 40
0.0967741935483871
 40
0.1290322580645161
 40
0.1290322580645161
 40
0.1290322580645161
 40
0.1290322580645161
 40
0.1612903225806452
 40
0.1612903225806452
 40
0.1612903225806452
 40
0.1612903225806452
 40
0.1935483870967742
 40
0.1935483870967742
 40
0.1935483870967742
 40
0.1935483870967742
 40
0.2258064516129032
 40
0.2258064516129032
 40
0.2258064516129032
 40
0.2258064516129032
 40
0.2580645161290323
 40
0.2580645161290323
 40
0.2580645161290323
 40
0.2580645161290323
 40
0.2903225806451613
 40
0.2903225806451613
 40
0.2903225806451613
 40
0.2903225806451613
 40
0.3225806451612903
 40
0.3225806451612903
 40
0.3225806451612903
 40
0.3225806451612903
 40
0.3548387096774194
 40
0.3548387096774194
 40
0.3548387096774194
 40
0.3548387096774194
 40
0.3870967741935484
 40
0.3870967741935484
 40
0.3870967741935484
 40
0.3870967741935484
 40
0.4193548387096774
 40
0.4193548387096774
 40
0.4193548387096774
 40
0.4193548387096774
 40
0.4516129032258064
 40
0.4516129032258064
 40
0.4516129032258064
 40
0.4516129032258064
 40
0.4838709677419355
 40
0.4838709677419355
 40
0.4838709677419355
 40
0.4838709677419355
 40
0.5161290322580645
 40
0.5161290322580645
 40
0.5161290322580645
 40
0.5161290322580645
 40
0.5483870967741935
 40
0.5483870967741935
 40
0.5483870967741935
 40
0.5483870967741935
 40
0.5806451612903226
 40
0.5806451612903226
 40
0.5806451612903226
 40
0.5806451612903226
 40
0.6129032258064516
 40
0.6129032258064516
 40
0.6129032258064516
 40
0.6129032258064516
 40
0.6451612903225806
 40
0.6451612903225806
 40
0.6451612903225806
 40
0.6451612903225806
 40
0.6774193548387096
 40
0.6774193548387096
 40
0.6774193548387096
 40
0.6774193548387096
 40
0.7096774193548387
 40
0.7096774193548387
 40
0.7096774193548387
 40
0.7096774193548387
 40
0.7419354838709677
 40
0.7419354838709677
 40
0.7419354838709677
 40
0.7419354838709677
 40
0.7741935483870968
 40
0.7741935483870968
 40
0.7741935483870968
 40
0.7741935483870968
 40
0.8064516129032258
 40
0.8064516129032258
 40
0.8064516129032258
 40
0.8064516129032258
 40
0.8387096774193549
 40
0.8387096774193549
 40
0.8387096774193549
 40
0.8387096774193549
 40
0.8709677419354839
 40
0.8709677419354839
 40
0.8709677419354839
 40
0.8709677419354839
 40
0.9032258064516129
 40
0.9032258064516129
 40
0.9032258064516129
 40
0.9032258064516129
 40
0.9354838709677419
 40
0.9354838709677419
 40
0.9354838709677419
 40
0.9354838709677419
 40
1.0
 40
1.0
 40
1.0
 40
1.0
 10
-27.4725
 20
-6.3257
 30
0.0
 10
-27.4725
 20
-6.3257
 30
0.0
 10
-27.5054
 20
-6.0778
 30
0.0
 10
-27.5054
 20
-6.0778
 30
0.0
 10
-27.5054
 20
-6.0778
 30
0.0
 10
-27.3648
 20
-6.0491
 30
0.0
 10
-27.2637
 20
-6.0006
 30
0.0
 10
-27.2016
 20
-5.9324
 30
0.0
 10
-27.2016
 20
-5.9324
 30
0.0
 10
-27.1395
 20
-5.8638
 30
0.0
 10
-27.1084
 20
-5.7805
 30
0.0
 10
-27.1084
 20
-5.6822
 30
0.0
 10
-27.1084
 20
-5.6822
 30
0.0
 10
-27.1084
 20
-5.5656
 30
0.0
 10
-27.1489
 20
-5.4668
 30
0.0
 10
-27.2298
 20
-5.3863
 30
0.0
 10
-27.2298
 20
-5.3863
 30
0.0
 10
-27.3107
 20
-5.3064
 30
0.0
 10
-27.4109
 20
-5.2659
 30
0.0
 10
-27.5304
 20
-5.2659
 30
0.0
 10
-27.5304
 20
-5.2659
 30
0.0
 10
-27.6442
 20
-5.2659
 30
0.0
 10
-27.7383
 20
-5.3031
 30
0.0
 10
-27.8121
 20
-5.3774
 30
0.0
 10
-27.8121
 20
-5.3774
 30
0.0
 10
-27.8859
 20
-5.4522
 30
0.0
 10
-27.9231
 20
-5.5467
 30
0.0
 10
-27.9231
 20
-5.6615
 30
0.0
 10
-27.9231
 20
-5.6615
 30
0.0
 10
-27.9231
 20
-5.7085
 30
0.0
 10
-27.9137
 20
-5.7669
 30
0.0
 10
-27.8954
 20
-5.8365
 30
0.0
 10
-27.8954
 20
-5.8365
 30
0.0
 10
-27.8954
 20
-5.8365
 30
0.0
 10
-28.1131
 20
-5.8087
 30
0.0
 10
-28.1131
 20
-5.8087
 30
0.0
 10
-28.1131
 20
-5.8087
 30
0.0
 10
-28.1113
 20
-5.7923
 30
0.0
 10
-28.1103
 20
-5.7791
 30
0.0
 10
-28.1103
 20
-5.7688
 30
0.0
 10
-28.1103
 20
-5.7688
 30
0.0
 10
-28.1103
 20
-5.6634
 30
0.0
 10
-28.1381
 20
-5.5684
 30
0.0
 10
-28.1931
 20
-5.4837
 30
0.0
 10
-28.1931
 20
-5.4837
 30
0.0
 10
-28.2481
 20
-5.399
 30
0.0
 10
-28.3333
 20
-5.3567
 30
0.0
 10
-28.448
 20
-5.3567
 30
0.0
 10
-28.448
 20
-5.3567
 30
0.0
 10
-28.5388
 20
-5.3567
 30
0.0
 10
-28.6145
 20
-5.3878
 30
0.0
 10
-28.6738
 20
-5.4494
 30
0.0
 10
-28.6738
 20
-5.4494
 30
0.0
 10
-28.7335
 20
-5.511
 30
0.0
 10
-28.7637
 20
-5.5905
 30
0.0
 10
-28.7637
 20
-5.6879
 30
0.0
 10
-28.7637
 20
-5.6879
 30
0.0
 10
-28.7637
 20
-5.7843
 30
0.0
 10
-28.7331
 20
-5.8647
 30
0.0
 10
-28.6729
 20
-5.9287
 30
0.0
 10
-28.6729
 20
-5.9287
 30
0.0
 10
-28.6122
 20
-5.9931
 30
0.0
 10
-28.5209
 20
-6.0345
 30
0.0
 10
-28.3996
 20
-6.0529
 30
0.0
 10
-28.3996
 20
-6.0529
 30
0.0
 10
-28.3996
 20
-6.0529
 30
0.0
 10
-28.4438
 20
-6.3007
 30
0.0
 10
-28.4438
 20
-6.3007
 30
0.0
 10
-28.4438
 20
-6.3007
 30
0.0
 10
-28.6103
 20
-6.2706
 30
0.0
 10
-28.7392
 20
-6.2015
 30
0.0
 10
-28.8304
 20
-6.0942
 30
0.0
 10
-28.8304
 20
-6.0942
 30
0.0
 10
-28.9217
 20
-5.9865
 30
0.0
 10
-28.9678
 20
-5.8529
 30
0.0
 10
-28.9678
 20
-5.693
 30
0.0
 10
-28.9678
 20
-5.693
 30
0.0
 10
-28.9678
 20
-5.583
 30
0.0
 10
-28.9438
 20
-5.4814
 30
0.0
 10
-28.8968
 20
-5.3887
 30
0.0
 10
-28.8968
 20
-5.3887
 30
0.0
 10
-28.8493
 20
-5.296
 30
0.0
 10
-28.7848
 20
-5.225
 30
0.0
 10
-28.703
 20
-5.1756
 30
0.0
 10
-28.703
 20
-5.1756
 30
0.0
 10
-28.6211
 20
-5.1267
 30
0.0
 10
-28.5346
 20
-5.1018
 30
0.0
 10
-28.4424
 20
-5.1018
 30
0.0
 10
-28.4424
 20
-5.1018
 30
0.0
 10
-28.3554
 20
-5.1018
 30
0.0
 10
-28.2759
 20
-5.1253
 30
0.0
 10
-28.2039
 20
-5.1723
 30
0.0
 10
-28.2039
 20
-5.1723
 30
0.0
 10
-28.1324
 20
-5.2194
 30
0.0
 10
-28.0755
 20
-5.2885
 30
0.0
 10
-28.0332
 20
-5.3802
 30
0.0
 10
-28.0332
 20
-5.3802
 30
0.0
 10
-28.0059
 20
-5.2608
 30
0.0
 10
-27.9485
 20
-5.1681
 30
0.0
 10
-27.8615
 20
-5.1018
 30
0.0
 10
-27.8615
 20
-5.1018
 30
0.0
 10
-27.7749
 20
-5.0359
 30
0.0
 10
-27.6663
 20
-5.003
 30
0.0
 10
-27.536
 20
-5.003
 30
0.0
 10
-27.536
 20
-5.003
 30
0.0
 10
-27.3596
 20
-5.003
 30
0.0
 10
-27.21
 20
-5.067
 30
0.0
 10
-27.0873
 20
-5.1958
 30
0.0
 10
-27.0873
 20
-5.1958
 30
0.0
 10
-26.9645
 20
-5.3243
 30
0.0
 10
-26.9034
 20
-5.487
 30
0.0
 10
-26.9034
 20
-5.6836
 30
0.0
 10
-26.9034
 20
-5.6836
 30
0.0
 10
-26.9034
 20
-5.8609
 30
0.0
 10
-26.956
 20
-6.0082
 30
0.0
 10
-27.0619
 20
-6.1253
 30
0.0
 10
-27.0619
 20
-6.1253
 30
0.0
 10
-27.1672
 20
-6.2424
 30
0.0
 10
-27.3041
 20
-6.3092
 30
0.0
 10
-27.4725
 20
-6.3257
 30
0.0
  0
SPLINE
  5
78
330
1F
100
AcDbEntity
  8
VRSTVA_1
 62
   250
100
AcDbSpline
210
0.0
220
0.0
230
1.0
 70
    11
 71
     3
 72
    92
 73
    88
 74
     0
 42
0.0000000001
 43
0.0000000001
 40
0.0
 40
0.0
 40
0.0
 40
0.0
 40
0.0434782608695652
 40
0.0434782608695652
 40
0.0434782608695652
 40
0.0434782608695652
 40
0.0869565217391304
 40
0.0869565217391304
 40
0.0869565217391304
 40
0.0869565217391304
 40
0.1304347826086956
 40
0.1304347826086956
 40
0.1304347826086956
 40
0.1304347826086956
 40
0.1739130434782609
 40
0.1739130434782609
 40
0.1739130434782609
 40
0.1739130434782609
 40
0.2173913043478261
 40
0.2173913043478261
 40
0.2173913043478261
 40
0.2173913043478261
 40
0.2608695652173913
 40
0.2608695652173913
 40
0.2608695652173913
 40
0.2608695652173913
 40
0.3043478260869565
 40
0.3043478260869565
 40
0.3043478260869565
 40
0.3043478260869565
 40
0.3478260869565217
 40
0.3478260869565217
 40
0.3478260869565217
 40
0.3478260869565217
 40
0.391304347826087
 40
0.391304347826087
 40
0.391304347826087
 40
0.391304347826087
 40
0.4347826086956522
 40
0.4347826086956522
 40
0.4347826086956522
 40
0.4347826086956522
 40
0.4782608695652174
 40
0.4782608695652174
 40
0.4782608695652174
 40
0.4782608695652174
 40
0.5217391304347826
 40
0.5217391304347826
 40
0.5217391304347826
 40
0.5217391304347826
 40
0.5652173913043478
 40
0.5652173913043478
 40
0.5652173913043478
 40
0.5652173913043478
 40
0.6086956521739131
 40
0.6086956521739131
 40
0.6086956521739131
 40
0.6086956521739131
 40
0.6521739130434783
 40
0.6521739130434783
 40
0.6521739130434783
 40
0.6521739130434783
 40
0.6956521739130435
 40
0.6956521739130435
 40
0.6956521739130435
 40
0.6956521739130435
 40
0.7391304347826086
 40
0.7391304347826086
 40
0.7391304347826086
 40
0.7391304347826086
 40
0.782608695652174
 40
0.782608695652174
 40
0.782608695652174
 40
0.782608695652174
 40
0.8260869565217391
 40
0.8260869565217391
 40
0.8260869565217391
 40
0.8260869565217391
 40
0.8695652173913043
 40
0.8695652173913043
 40
0.8695652173913043
 40
0.8695652173913043
 40
0.9130434782608695
 40
0.9130434782608695
 40
0.9130434782608695
 40
0.9130434782608695
 40
1.0
 40
1.0
 40
1.0
 40
1.0
 10
-27.4683
 20
-4.7575
 30
0.0
 10
-27.4683
 20
-4.7575
 30
0.0
 10
-27.4904
 20
-4.4969
 30
0.0
 10
-27.4904
 20
-4.4969
 30
0.0
 10
-27.4904
 20
-4.4969
 30
0.0
 10
-27.3634
 20
-4.4776
 30
0.0
 10
-27.2684
 20
-4.4329
 30
0.0
 10
-27.2044
 20
-4.3628
 30
0.0
 10
-27.2044
 20
-4.3628
 30
0.0
 10
-27.1404
 20
-4.2923
 30
0.0
 10
-27.1084
 20
-4.2076
 30
0.0
 10
-27.1084
 20
-4.1084
 30
0.0
 10
-27.1084
 20
-4.1084
 30
0.0
 10
-27.1084
 20
-3.9889
 30
0.0
 10
-27.1536
 20
-3.8878
 30
0.0
 10
-27.2434
 20
-3.8055
 30
0.0
 10
-27.2434
 20
-3.8055
 30
0.0
 10
-27.3337
 20
-3.7227
 30
0.0
 10
-27.4532
 20
-3.6813
 30
0.0
 10
-27.6018
 20
-3.6813
 30
0.0
 10
-27.6018
 20
-3.6813
 30
0.0
 10
-27.7434
 20
-3.6813
 30
0.0
 10
-27.8549
 20
-3.7208
 30
0.0
 10
-27.9367
 20
-3.8003
 30
0.0
 10
-27.9367
 20
-3.8003
 30
0.0
 10
-28.0186
 20
-3.8798
 30
0.0
 10
-28.0595
 20
-3.9837
 30
0.0
 10
-28.0595
 20
-4.1126
 30
0.0
 10
-28.0595
 20
-4.1126
 30
0.0
 10
-28.0595
 20
-4.1926
 30
0.0
 10
-28.0412
 20
-4.2645
 30
0.0
 10
-28.005
 20
-4.329
 30
0.0
 10
-28.005
 20
-4.329
 30
0.0
 10
-27.9687
 20
-4.3934
 30
0.0
 10
-27.9217
 20
-4.4437
 30
0.0
 10
-27.8638
 20
-4.4804
 30
0.0
 10
-27.8638
 20
-4.4804
 30
0.0
 10
-27.8638
 20
-4.4804
 30
0.0
 10
-27.8939
 20
-4.7133
 30
0.0
 10
-27.8939
 20
-4.7133
 30
0.0
 10
-27.8939
 20
-4.7133
 30
0.0
 10
-27.8939
 20
-4.7133
 30
0.0
 10
-28.9316
 20
-4.5176
 30
0.0
 10
-28.9316
 20
-4.5176
 30
0.0
 10
-28.9316
 20
-4.5176
 30
0.0
 10
-28.9316
 20
-4.5176
 30
0.0
 10
-28.9316
 20
-3.5129
 30
0.0
 10
-28.9316
 20
-3.5129
 30
0.0
 10
-28.9316
 20
-3.5129
 30
0.0
 10
-28.9316
 20
-3.5129
 30
0.0
 10
-28.6945
 20
-3.5129
 30
0.0
 10
-28.6945
 20
-3.5129
 30
0.0
 10
-28.6945
 20
-3.5129
 30
0.0
 10
-28.6945
 20
-3.5129
 30
0.0
 10
-28.6945
 20
-4.3191
 30
0.0
 10
-28.6945
 20
-4.3191
 30
0.0
 10
-28.6945
 20
-4.3191
 30
0.0
 10
-28.6945
 20
-4.3191
 30
0.0
 10
-28.1517
 20
-4.4282
 30
0.0
 10
-28.1517
 20
-4.4282
 30
0.0
 10
-28.1517
 20
-4.4282
 30
0.0
 10
-28.2364
 20
-4.3069
 30
0.0
 10
-28.2787
 20
-4.1794
 30
0.0
 10
-28.2787
 20
-4.0463
 30
0.0
 10
-28.2787
 20
-4.0463
 30
0.0
 10
-28.2787
 20
-3.8699
 30
0.0
 10
-28.2176
 20
-3.7213
 30
0.0
 10
-28.0953
 20
-3.5999
 30
0.0
 10
-28.0953
 20
-3.5999
 30
0.0
 10
-27.973
 20
-3.4786
 30
0.0
 10
-27.8159
 20
-3.4179
 30
0.0
 10
-27.624
 20
-3.4179
 30
0.0
 10
-27.624
 20
-3.4179
 30
0.0
 10
-27.441
 20
-3.4179
 30
0.0
 10
-27.2829
 20
-3.4715
 30
0.0
 10
-27.1498
 20
-3.5778
 30
0.0
 10
-27.1498
 20
-3.5778
 30
0.0
 10
-26.9866
 20
-3.7076
 30
0.0
 10
-26.9048
 20
-3.8845
 30
0.0
 10
-26.9048
 20
-4.1084
 30
0.0
 10
-26.9048
 20
-4.1084
 30
0.0
 10
-26.9048
 20
-4.2923
 30
0.0
 10
-26.956
 20
-4.4423
 30
0.0
 10
-27.059
 20
-4.5585
 30
0.0
 10
-27.059
 20
-4.5585
 30
0.0
 10
-27.1621
 20
-4.6747
 30
0.0
 10
-27.2985
 20
-4.741
 30
0.0
 10
-27.4683
 20
-4.7575
 30
0.0
  0
SPLINE
  5
79
330
1F
100
AcDbEntity
  8
VRSTVA_1
100
AcDbSpline
210
0.0
220
0.0
230
1.0
 70
    24
 71
     3
 72
     8
 73
     4
 74
     0
 42
0.0000000001
 43
0.0000000001
 40
0.0
 40
0.0
 40
0.0
 40
0.0
 40
1.0
 40
1.0
 40
1.0
 40
1.0
 10
27.8413
 20
-2.167
 30
0.0
 10
27.8413
 20
-2.167
 30
0.0
 10
27.8413
 20
-1.9982
 30
0.0
 10
27.8413
 20
-1.9982
 30
0.0
  0
SPLINE
  5
7A
330
1F
100
AcDbEntity
  8
VRSTVA_1
100
AcDbSpline
210
0.0
220
0.0
230
1.0
 70
    24
 71
     3
 72
     8
 73
     4
 74
     0
 42
0.0000000001
 43
0.0000000001
 40
0.0
 40
0.0
 40
0.0
 40
0.0
 40
1.0
 40
1.0
 40
1.0
 40
1.0
 10
25.8745
 20
-14.1828
 30
0.0
 10
25.8745
 20
-14.1828
 30
0.0
 10
25.8745
 20
-14.1683
 30
0.0
 10
25.8745
 20
-14.1683
 30
0.0
  0
SPLINE
  5
7B
330
1F
100
AcDbEntity
  8
VRSTVA_1
100
AcDbSpline
210
0.0
220
0.0
230
1.0
 70
    24
 71
     3
 72
     8
 73
     4
 74
     0
 42
0.0000000001
 43
0.0000000001
 40
0.0
 40
0.0
 40
0.0
 40
0.0
 40
1.0
 40
1.0
 40
1.0
 40
1.0
 10
25.8745
 20
-14.21
 30
0.0
 10
25.8745
 20
-14.21
 30
0.0
 10
25.8745
 20
13.187
 30
0.0
 10
25.8745
 20
13.187
 30
0.0
  0
SPLINE
  5
7C
330
1F
100
AcDbEntity
  8
VRSTVA_1
100
AcDbSpline
210
0.0
220
0.0
230
1.0
 70
    24
 71
     3
 72
     8
 73
     4
 74
     0
 42
0.0000000001
 43
0.0000000001
 40
0.0
 40
0.0
 40
0.0
 40
0.0
 40
1.0
 40
1.0
 40
1.0
 40
1.0
 10
25.8745
 20
13.2001
 30
0.0
 10
25.8745
 20
13.2001
 30
0.0
 10
25.8745
 20
-14.2514
 30
0.0
 10
25.8745
 20
-14.2514
 30
0.0
  0
SPLINE
  5
7D
330
1F
100
AcDbEntity
  8
VRSTVA_1
100
AcDbSpline
210
0.0
220
0.0
230
1.0
 70
    24
 71
     3
 72
     8
 73
     4
 74
     0
 42
0.0000000001
 43
0.0000000001
 40
0.0
 40
0.0
 40
0.0
 40
0.0
 40
1.0
 40
1.0
 40
1.0
 40
1.0
 10
25.8745
 20
-14.1968
 30
0.0
 10
25.8745
 20
-14.1968
 30
0.0
 10
25.8745
 20
13.2416
 30
0.0
 10
25.8745
 20
13.2416
 30
0.0
  0
SPLINE
  5
7E
330
1F
100
AcDbEntity
  8
VRSTVA_1
100
AcDbSpline
210
0.0
220
0.0
230
1.0
 70
    24
 71
     3
 72
     8
 73
     4
 74
     0
 42
0.0000000001
 43
0.0000000001
 40
0.0
 40
0.0
 40
0.0
 40
0.0
 40
1.0
 40
1.0
 40
1.0
 40
1.0
 10
27.9515
 20
8.5465
 30
0.0
 10
27.9515
 20
8.5465
 30
0.0
 10
27.9604
 20
8.4261
 30
0.0
 10
27.9604
 20
8.4261
 30
0.0
  0
SPLINE
  5
7F
330
1F
100
AcDbEntity
  8
VRSTVA_1
100
AcDbSpline
210
0.0
220
0.0
230
1.0
 70
    24
 71
     3
 72
     8
 73
     4
 74
     0
 42
0.0000000001
 43
0.0000000001
 40
0.0
 40
0.0
 40
0.0
 40
0.0
 40
1.0
 40
1.0
 40
1.0
 40
1.0
 10
27.9515
 20
8.5462
 30
0.0
 10
27.9515
 20
8.5462
 30
0.0
 10
27.9527
 20
8.529
 30
0.0
 10
27.9527
 20
8.529
 30
0.0
  0
SPLINE
  5
80
330
1F
100
AcDbEntity
  8
VRSTVA_1
100
AcDbSpline
210
0.0
220
0.0
230
1.0
 70
    24
 71
     3
 72
     8
 73
     4
 74
     0
 42
0.0000000001
 43
0.0000000001
 40
0.0
 40
0.0
 40
0.0
 40
0.0
 40
1.0
 40
1.0
 40
1.0
 40
1.0
 10
27.8413
 20
-8.0072
 30
0.0
 10
27.8413
 20
-8.0072
 30
0.0
 10
27.8413
 20
-8.176
 30
0.0
 10
27.8413
 20
-8.176
 30
0.0
  0
SPLINE
  5
81
330
1F
100
AcDbEntity
  8
VRSTVA_1
100
AcDbSpline
210
0.0
220
0.0
230
1.0
 70
     8
 71
     3
 72
     8
 73
     4
 74
     0
 42
0.0000000001
 43
0.0000000001
 40
0.0
 40
0.0
 40
0.0
 40
0.0
 40
1.0
 40
1.0
 40
1.0
 40
1.0
 10
28.4237
 20
-1.9399
 30
0.0
 10
28.4282
 20
-1.9285
 30
0.0
 10
28.4313
 20
-1.9169
 30
0.0
 10
28.4309
 20
-1.9046
 30
0.0
  0
SPLINE
  5
82
330
1F
100
AcDbEntity
  8
VRSTVA_1
100
AcDbSpline
210
0.0
220
0.0
230
1.0
 70
     8
 71
     3
 72
    24
 73
    20
 74
     0
 42
0.0000000001
 43
0.0000000001
 40
0.0
 40
0.0
 40
0.0
 40
0.0
 40
0.1666666666666667
 40
0.1666666666666667
 40
0.1666666666666667
 40
0.1666666666666667
 40
0.3333333333333333
 40
0.3333333333333333
 40
0.3333333333333333
 40
0.3333333333333333
 40
0.5
 40
0.5
 40
0.5
 40
0.5
 40
0.6666666666666666
 40
0.6666666666666666
 40
0.6666666666666666
 40
0.6666666666666666
 40
1.0
 40
1.0
 40
1.0
 40
1.0
 10
28.4309
 20
-1.9046
 30
0.0
 10
28.4309
 20
-1.9046
 30
0.0
 10
28.4194
 20
-1.5715
 30
0.0
 10
28.4194
 20
-1.5715
 30
0.0
 10
28.4194
 20
-1.5715
 30
0.0
 10
28.4194
 20
-1.5715
 30
0.0
 10
28.2234
 20
4.1039
 30
0.0
 10
28.2234
 20
4.1039
 30
0.0
 10
28.2234
 20
4.1039
 30
0.0
 10
28.2234
 20
4.1039
 30
0.0
 10
28.212
 20
4.4369
 30
0.0
 10
28.212
 20
4.4369
 30
0.0
 10
28.212
 20
4.4369
 30
0.0
 10
28.212
 20
4.4369
 30
0.0
 10
28.1889
 20
4.7695
 30
0.0
 10
28.1889
 20
4.7695
 30
0.0
 10
28.1889
 20
4.7695
 30
0.0
 10
28.1889
 20
4.7695
 30
0.0
 10
27.8101
 20
10.2586
 30
0.0
 10
27.8101
 20
10.2586
 30
0.0
  0
SPLINE
  5
83
330
1F
100
AcDbEntity
  8
VRSTVA_1
100
AcDbSpline
210
0.0
220
0.0
230
1.0
 70
     8
 71
     3
 72
    16
 73
    12
 74
     0
 42
0.0000000001
 43
0.0000000001
 40
0.0
 40
0.0
 40
0.0
 40
0.0
 40
0.25
 40
0.25
 40
0.25
 40
0.25
 40
0.5
 40
0.5
 40
0.5
 40
0.5
 40
1.0
 40
1.0
 40
1.0
 40
1.0
 10
27.8101
 20
10.2586
 30
0.0
 10
27.7533
 20
11.0809
 30
0.0
 10
27.6655
 20
11.903
 30
0.0
 10
27.5895
 20
12.7225
 30
0.0
 10
27.5895
 20
12.7225
 30
0.0
 10
27.5882
 20
12.7364
 30
0.0
 10
27.6333
 20
13.109
 30
0.0
 10
27.4817
 20
13.1292
 30
0.0
 10
27.4817
 20
13.1292
 30
0.0
 10
27.4817
 20
13.1292
 30
0.0
 10
25.8812
 20
13.2407
 30
0.0
 10
25.8812
 20
13.2407
 30
0.0
  0
SPLINE
  5
84
330
1F
100
AcDbEntity
  8
VRSTVA_1
100
AcDbSpline
210
0.0
220
0.0
230
1.0
 70
     8
 71
     3
 72
     8
 73
     4
 74
     0
 42
0.0000000001
 43
0.0000000001
 40
0.0
 40
0.0
 40
0.0
 40
0.0
 40
1.0
 40
1.0
 40
1.0
 40
1.0
 10
28.4263
 20
-1.9331
 30
0.0
 10
28.4152
 20
-1.9615
 30
0.0
 10
28.3907
 20
-1.9852
 30
0.0
 10
28.3591
 20
-1.9885
 30
0.0
  0
SPLINE
  5
85
330
1F
100
AcDbEntity
  8
VRSTVA_1
100
AcDbSpline
210
0.0
220
0.0
230
1.0
 70
     8
 71
     3
 72
    24
 73
    20
 74
     0
 42
0.0000000001
 43
0.0000000001
 40
0.0
 40
0.0
 40
0.0
 40
0.0
 40
0.1666666666666667
 40
0.1666666666666667
 40
0.1666666666666667
 40
0.1666666666666667
 40
0.3333333333333333
 40
0.3333333333333333
 40
0.3333333333333333
 40
0.3333333333333333
 40
0.5
 40
0.5
 40
0.5
 40
0.5
 40
0.6666666666666666
 40
0.6666666666666666
 40
0.6666666666666666
 40
0.6666666666666666
 40
1.0
 40
1.0
 40
1.0
 40
1.0
 10
28.3591
 20
-1.9885
 30
0.0
 10
28.3591
 20
-1.9885
 30
0.0
 10
28.349
 20
-1.9892
 30
0.0
 10
28.349
 20
-1.9892
 30
0.0
 10
28.349
 20
-1.9892
 30
0.0
 10
28.349
 20
-1.9892
 30
0.0
 10
28.0159
 20
-1.995
 30
0.0
 10
28.0159
 20
-1.995
 30
0.0
 10
28.0159
 20
-1.995
 30
0.0
 10
28.0159
 20
-1.995
 30
0.0
 10
27.6226
 20
-2.002
 30
0.0
 10
27.6226
 20
-2.002
 30
0.0
 10
27.6226
 20
-2.002
 30
0.0
 10
27.6226
 20
-2.002
 30
0.0
 10
27.2894
 20
-2.0077
 30
0.0
 10
27.2894
 20
-2.0077
 30
0.0
 10
27.2894
 20
-2.0077
 30
0.0
 10
27.2894
 20
-2.0077
 30
0.0
 10
27.2614
 20
-2.0131
 30
0.0
 10
27.2614
 20
-2.0131
 30
0.0
  0
SPLINE
  5
86
330
1F
100
AcDbEntity
  8
VRSTVA_1
100
AcDbSpline
210
0.0
220
0.0
230
1.0
 70
     8
 71
     3
 72
     8
 73
     4
 74
     0
 42
0.0000000001
 43
0.0000000001
 40
0.0
 40
0.0
 40
0.0
 40
0.0
 40
1.0
 40
1.0
 40
1.0
 40
1.0
 10
27.3834
 20
-2.6648
 30
0.0
 10
27.3098
 20
-2.6635
 30
0.0
 10
27.2159
 20
-2.676
 30
0.0
 10
27.2076
 20
-2.5799
 30
0.0
  0
SPLINE
  5
87
330
1F
100
AcDbEntity
  8
VRSTVA_1
100
AcDbSpline
210
0.0
220
0.0
230
1.0
 70
     8
 71
     3
 72
     8
 73
     4
 74
     0
 42
0.0000000001
 43
0.0000000001
 40
0.0
 40
0.0
 40
0.0
 40
0.0
 40
1.0
 40
1.0
 40
1.0
 40
1.0
 10
28.1668
 20
-14.09
 30
0.0
 10
28.1966
 20
-14.0818
 30
0.0
 10
28.2239
 20
-14.0584
 30
0.0
 10
28.2291
 20
-14.0264
 30
0.0
  0
SPLINE
  5
88
330
1F
100
AcDbEntity
  8
VRSTVA_1
100
AcDbSpline
210
0.0
220
0.0
230
1.0
 70
     8
 71
     3
 72
    24
 73
    20
 74
     0
 42
0.0000000001
 43
0.0000000001
 40
0.0
 40
0.0
 40
0.0
 40
0.0
 40
0.1666666666666667
 40
0.1666666666666667
 40
0.1666666666666667
 40
0.1666666666666667
 40
0.3333333333333333
 40
0.3333333333333333
 40
0.3333333333333333
 40
0.3333333333333333
 40
0.5
 40
0.5
 40
0.5
 40
0.5
 40
0.6666666666666666
 40
0.6666666666666666
 40
0.6666666666666666
 40
0.6666666666666666
 40
1.0
 40
1.0
 40
1.0
 40
1.0
 10
28.2291
 20
-14.0264
 30
0.0
 10
28.2291
 20
-14.0264
 30
0.0
 10
28.2308
 20
-14.0132
 30
0.0
 10
28.2308
 20
-14.0132
 30
0.0
 10
28.2308
 20
-14.0132
 30
0.0
 10
28.2308
 20
-14.0132
 30
0.0
 10
28.2422
 20
-13.6801
 30
0.0
 10
28.2422
 20
-13.6801
 30
0.0
 10
28.2422
 20
-13.6801
 30
0.0
 10
28.2422
 20
-13.6801
 30
0.0
 10
28.4153
 20
-8.6027
 30
0.0
 10
28.4153
 20
-8.6027
 30
0.0
 10
28.4153
 20
-8.6027
 30
0.0
 10
28.4153
 20
-8.6027
 30
0.0
 10
28.4267
 20
-8.2697
 30
0.0
 10
28.4267
 20
-8.2697
 30
0.0
 10
28.4267
 20
-8.2697
 30
0.0
 10
28.4267
 20
-8.2697
 30
0.0
 10
28.4256
 20
-8.2552
 30
0.0
 10
28.4256
 20
-8.2552
 30
0.0
  0
SPLINE
  5
89
330
1F
100
AcDbEntity
  8
VRSTVA_1
100
AcDbSpline
210
0.0
220
0.0
230
1.0
 70
     8
 71
     3
 72
     8
 73
     4
 74
     0
 42
0.0000000001
 43
0.0000000001
 40
0.0
 40
0.0
 40
0.0
 40
0.0
 40
1.0
 40
1.0
 40
1.0
 40
1.0
 10
28.4256
 20
-8.2552
 30
0.0
 10
28.4195
 20
-8.2157
 30
0.0
 10
28.3848
 20
-8.1856
 30
0.0
 10
28.3448
 20
-8.1848
 30
0.0
  0
SPLINE
  5
8A
330
1F
100
AcDbEntity
  8
VRSTVA_1
100
AcDbSpline
210
0.0
220
0.0
230
1.0
 70
     8
 71
     3
 72
    16
 73
    12
 74
     0
 42
0.0000000001
 43
0.0000000001
 40
0.0
 40
0.0
 40
0.0
 40
0.0
 40
0.25
 40
0.25
 40
0.25
 40
0.25
 40
0.5
 40
0.5
 40
0.5
 40
0.5
 40
1.0
 40
1.0
 40
1.0
 40
1.0
 10
28.3448
 20
-8.1848
 30
0.0
 10
28.3448
 20
-8.1848
 30
0.0
 10
28.0116
 20
-8.179
 30
0.0
 10
28.0116
 20
-8.179
 30
0.0
 10
28.0116
 20
-8.179
 30
0.0
 10
28.0116
 20
-8.179
 30
0.0
 10
27.6226
 20
-8.1722
 30
0.0
 10
27.6226
 20
-8.1722
 30
0.0
 10
27.6226
 20
-8.1722
 30
0.0
 10
27.6226
 20
-8.1722
 30
0.0
 10
27.2894
 20
-8.1664
 30
0.0
 10
27.2894
 20
-8.1664
 30
0.0
  0
SPLINE
  5
8B
330
1F
100
AcDbEntity
  8
VRSTVA_1
100
AcDbSpline
210
0.0
220
0.0
230
1.0
 70
     8
 71
     3
 72
    12
 73
     8
 74
     0
 42
0.0000000001
 43
0.0000000001
 40
0.0
 40
0.0
 40
0.0
 40
0.0
 40
0.3333333333333333
 40
0.3333333333333333
 40
0.3333333333333333
 40
0.3333333333333333
 40
1.0
 40
1.0
 40
1.0
 40
1.0
 10
27.2894
 20
-8.1664
 30
0.0
 10
27.2653
 20
-8.1659
 30
0.0
 10
27.2421
 20
-8.1548
 30
0.0
 10
27.2267
 20
-8.1361
 30
0.0
 10
27.2267
 20
-8.1361
 30
0.0
 10
27.2144
 20
-8.1213
 30
0.0
 10
27.2077
 20
-8.1024
 30
0.0
 10
27.2076
 20
-8.0832
 30
0.0
  0
SPLINE
  5
8C
330
1F
100
AcDbEntity
  8
VRSTVA_1
100
AcDbSpline
210
0.0
220
0.0
230
1.0
 70
    24
 71
     3
 72
    12
 73
     8
 74
     0
 42
0.0000000001
 43
0.0000000001
 40
0.0
 40
0.0
 40
0.0
 40
0.0
 40
0.3333333333333333
 40
0.3333333333333333
 40
0.3333333333333333
 40
0.3333333333333333
 40
1.0
 40
1.0
 40
1.0
 40
1.0
 10
27.2076
 20
-8.0832
 30
0.0
 10
27.2076
 20
-8.0832
 30
0.0
 10
27.2076
 20
-7.7499
 30
0.0
 10
27.2076
 20
-7.7499
 30
0.0
 10
27.2076
 20
-7.7499
 30
0.0
 10
27.2076
 20
-7.7499
 30
0.0
 10
27.2076
 20
-2.4243
 30
0.0
 10
27.2076
 20
-2.4243
 30
0.0
  0
SPLINE
  5
8D
330
1F
100
AcDbEntity
  8
VRSTVA_1
100
AcDbSpline
210
0.0
220
0.0
230
1.0
 70
     8
 71
     3
 72
     8
 73
     4
 74
     0
 42
0.0000000001
 43
0.0000000001
 40
0.0
 40
0.0
 40
0.0
 40
0.0
 40
1.0
 40
1.0
 40
1.0
 40
1.0
 10
27.2076
 20
-2.4243
 30
0.0
 10
27.2076
 20
-2.4243
 30
0.0
 10
27.128
 20
-2.0311
 30
0.0
 10
27.2823
 20
-2.0082
 30
0.0
  0
SPLINE
  5
8E
330
1F
100
AcDbEntity
  8
VRSTVA_1
100
AcDbSpline
210
0.0
220
0.0
230
1.0
 70
     8
 71
     3
 72
    20
 73
    16
 74
     0
 42
0.0000000001
 43
0.0000000001
 40
0.0
 40
0.0
 40
0.0
 40
0.0
 40
0.2
 40
0.2
 40
0.2
 40
0.2
 40
0.4
 40
0.4
 40
0.4
 40
0.4
 40
0.6
 40
0.6
 40
0.6
 40
0.6
 40
1.0
 40
1.0
 40
1.0
 40
1.0
 10
28.1629
 20
-14.0909
 30
0.0
 10
28.1629
 20
-14.0909
 30
0.0
 10
28.1535
 20
-14.092
 30
0.0
 10
28.1535
 20
-14.092
 30
0.0
 10
28.1535
 20
-14.092
 30
0.0
 10
28.1535
 20
-14.092
 30
0.0
 10
27.821
 20
-14.1153
 30
0.0
 10
27.821
 20
-14.1153
 30
0.0
 10
27.821
 20
-14.1153
 30
0.0
 10
27.821
 20
-14.1153
 30
0.0
 10
26.207
 20
-14.2282
 30
0.0
 10
26.207
 20
-14.2282
 30
0.0
 10
26.207
 20
-14.2282
 30
0.0
 10
26.207
 20
-14.2282
 30
0.0
 10
25.8745
 20
-14.2514
 30
0.0
 10
25.8745
 20
-14.2514
 30
0.0
  0
SPLINE
  5
8F
330
1F
100
AcDbEntity
  8
VRSTVA_1
100
AcDbSpline
210
0.0
220
0.0
230
1.0
 70
     8
 71
     3
 72
     8
 73
     4
 74
     0
 42
0.0000000001
 43
0.0000000001
 40
0.0
 40
0.0
 40
0.0
 40
0.0
 40
1.0
 40
1.0
 40
1.0
 40
1.0
 10
27.3834
 20
-7.5093
 30
0.0
 10
27.3098
 20
-7.5106
 30
0.0
 10
27.2159
 20
-7.4982
 30
0.0
 10
27.2076
 20
-7.5943
 30
0.0
  0
SPLINE
  5
90
330
1F
100
AcDbEntity
  8
VRSTVA_1
100
AcDbSpline
210
0.0
220
0.0
230
1.0
 70
     8
 71
     3
 72
     8
 73
     4
 74
     0
 42
0.0000000001
 43
0.0000000001
 40
0.0
 40
0.0
 40
0.0
 40
0.0
 40
1.0
 40
1.0
 40
1.0
 40
1.0
 10
27.3834
 20
-5.7272
 30
0.0
 10
27.3532
 20
-5.2991
 30
0.0
 10
27.3531
 20
-4.8752
 30
0.0
 10
27.3834
 20
-4.4471
 30
0.0
  0
SPLINE
  5
91
330
1F
100
AcDbEntity
  8
VRSTVA_1
100
AcDbSpline
210
0.0
220
0.0
230
1.0
 70
    24
 71
     3
 72
     8
 73
     4
 74
     0
 42
0.0000000001
 43
0.0000000001
 40
0.0
 40
0.0
 40
0.0
 40
0.0
 40
1.0
 40
1.0
 40
1.0
 40
1.0
 10
28.2247
 20
-7.2601
 30
0.0
 10
28.2247
 20
-7.2601
 30
0.0
 10
28.2416
 20
-7.3149
 30
0.0
 10
28.2416
 20
-7.3149
 30
0.0
  0
SPLINE
  5
92
330
1F
100
AcDbEntity
  8
VRSTVA_1
100
AcDbSpline
210
0.0
220
0.0
230
1.0
 70
    24
 71
     3
 72
     8
 73
     4
 74
     0
 42
0.0000000001
 43
0.0000000001
 40
0.0
 40
0.0
 40
0.0
 40
0.0
 40
1.0
 40
1.0
 40
1.0
 40
1.0
 10
28.0202
 20
-6.4218
 30
0.0
 10
28.0202
 20
-6.4218
 30
0.0
 10
28.0111
 20
-6.3709
 30
0.0
 10
28.0111
 20
-6.3709
 30
0.0
  0
SPLINE
  5
93
330
1F
100
AcDbEntity
  8
VRSTVA_1
100
AcDbSpline
210
0.0
220
0.0
230
1.0
 70
    24
 71
     3
 72
     8
 73
     4
 74
     0
 42
0.0000000001
 43
0.0000000001
 40
0.0
 40
0.0
 40
0.0
 40
0.0
 40
1.0
 40
1.0
 40
1.0
 40
1.0
 10
27.9429
 20
-5.8859
 30
0.0
 10
27.9429
 20
-5.8859
 30
0.0
 10
27.9392
 20
-5.8511
 30
0.0
 10
27.9392
 20
-5.8511
 30
0.0
  0
SPLINE
  5
94
330
1F
100
AcDbEntity
  8
VRSTVA_1
100
AcDbSpline
210
0.0
220
0.0
230
1.0
 70
    24
 71
     3
 72
     8
 73
     4
 74
     0
 42
0.0000000001
 43
0.0000000001
 40
0.0
 40
0.0
 40
0.0
 40
0.0
 40
1.0
 40
1.0
 40
1.0
 40
1.0
 10
27.9324
 20
-5.7818
 30
0.0
 10
27.9324
 20
-5.7818
 30
0.0
 10
27.9386
 20
-5.8448
 30
0.0
 10
27.9386
 20
-5.8448
 30
0.0
  0
SPLINE
  5
95
330
1F
100
AcDbEntity
  8
VRSTVA_1
100
AcDbSpline
210
0.0
220
0.0
230
1.0
 70
    24
 71
     3
 72
     8
 73
     4
 74
     0
 42
0.0000000001
 43
0.0000000001
 40
0.0
 40
0.0
 40
0.0
 40
0.0
 40
1.0
 40
1.0
 40
1.0
 40
1.0
 10
27.928
 20
-5.732
 30
0.0
 10
27.928
 20
-5.732
 30
0.0
 10
27.9311
 20
-5.7662
 30
0.0
 10
27.9311
 20
-5.7662
 30
0.0
  0
SPLINE
  5
96
330
1F
100
AcDbEntity
  8
VRSTVA_1
100
AcDbSpline
210
0.0
220
0.0
230
1.0
 70
    24
 71
     3
 72
     8
 73
     4
 74
     0
 42
0.0000000001
 43
0.0000000001
 40
0.0
 40
0.0
 40
0.0
 40
0.0
 40
1.0
 40
1.0
 40
1.0
 40
1.0
 10
27.9221
 20
-5.6592
 30
0.0
 10
27.9221
 20
-5.6592
 30
0.0
 10
27.9266
 20
-5.7161
 30
0.0
 10
27.9266
 20
-5.7161
 30
0.0
  0
SPLINE
  5
97
330
1F
100
AcDbEntity
  8
VRSTVA_1
100
AcDbSpline
210
0.0
220
0.0
230
1.0
 70
    24
 71
     3
 72
     8
 73
     4
 74
     0
 42
0.0000000001
 43
0.0000000001
 40
0.0
 40
0.0
 40
0.0
 40
0.0
 40
1.0
 40
1.0
 40
1.0
 40
1.0
 10
27.903
 20
-5.2939
 30
0.0
 10
27.903
 20
-5.2939
 30
0.0
 10
27.9008
 20
-5.1954
 30
0.0
 10
27.9008
 20
-5.1954
 30
0.0
  0
SPLINE
  5
98
330
1F
100
AcDbEntity
  8
VRSTVA_1
100
AcDbSpline
210
0.0
220
0.0
230
1.0
 70
    24
 71
     3
 72
     8
 73
     4
 74
     0
 42
0.0000000001
 43
0.0000000001
 40
0.0
 40
0.0
 40
0.0
 40
0.0
 40
1.0
 40
1.0
 40
1.0
 40
1.0
 10
27.9039
 20
-5.3201
 30
0.0
 10
27.9039
 20
-5.3201
 30
0.0
 10
27.9028
 20
-5.2802
 30
0.0
 10
27.9028
 20
-5.2802
 30
0.0
  0
SPLINE
  5
99
330
1F
100
AcDbEntity
  8
VRSTVA_1
100
AcDbSpline
210
0.0
220
0.0
230
1.0
 70
    24
 71
     3
 72
     8
 73
     4
 74
     0
 42
0.0000000001
 43
0.0000000001
 40
0.0
 40
0.0
 40
0.0
 40
0.0
 40
1.0
 40
1.0
 40
1.0
 40
1.0
 10
27.9006
 20
-5.1801
 30
0.0
 10
27.9006
 20
-5.1801
 30
0.0
 10
27.9001
 20
-5.0693
 30
0.0
 10
27.9001
 20
-5.0693
 30
0.0
  0
SPLINE
  5
9A
330
1F
100
AcDbEntity
  8
VRSTVA_1
100
AcDbSpline
210
0.0
220
0.0
230
1.0
 70
    24
 71
     3
 72
     8
 73
     4
 74
     0
 42
0.0000000001
 43
0.0000000001
 40
0.0
 40
0.0
 40
0.0
 40
0.0
 40
1.0
 40
1.0
 40
1.0
 40
1.0
 10
27.9171
 20
-4.5852
 30
0.0
 10
27.9171
 20
-4.5852
 30
0.0
 10
27.9145
 20
-4.6256
 30
0.0
 10
27.9145
 20
-4.6256
 30
0.0
  0
SPLINE
  5
9B
330
1F
100
AcDbEntity
  8
VRSTVA_1
100
AcDbSpline
210
0.0
220
0.0
230
1.0
 70
    24
 71
     3
 72
     8
 73
     4
 74
     0
 42
0.0000000001
 43
0.0000000001
 40
0.0
 40
0.0
 40
0.0
 40
0.0
 40
1.0
 40
1.0
 40
1.0
 40
1.0
 10
27.9206
 20
-4.5345
 30
0.0
 10
27.9206
 20
-4.5345
 30
0.0
 10
27.9178
 20
-4.5742
 30
0.0
 10
27.9178
 20
-4.5742
 30
0.0
  0
SPLINE
  5
9C
330
1F
100
AcDbEntity
  8
VRSTVA_1
100
AcDbSpline
210
0.0
220
0.0
230
1.0
 70
    24
 71
     3
 72
     8
 73
     4
 74
     0
 42
0.0000000001
 43
0.0000000001
 40
0.0
 40
0.0
 40
0.0
 40
0.0
 40
1.0
 40
1.0
 40
1.0
 40
1.0
 10
27.9018
 20
-4.9227
 30
0.0
 10
27.9018
 20
-4.9227
 30
0.0
 10
27.9039
 20
-4.8536
 30
0.0
 10
27.9039
 20
-4.8536
 30
0.0
  0
SPLINE
  5
9D
330
1F
100
AcDbEntity
  8
VRSTVA_1
100
AcDbSpline
210
0.0
220
0.0
230
1.0
 70
    24
 71
     3
 72
     8
 73
     4
 74
     0
 42
0.0000000001
 43
0.0000000001
 40
0.0
 40
0.0
 40
0.0
 40
0.0
 40
1.0
 40
1.0
 40
1.0
 40
1.0
 10
27.9001
 20
-5.0534
 30
0.0
 10
27.9001
 20
-5.0534
 30
0.0
 10
27.9016
 20
-4.9391
 30
0.0
 10
27.9016
 20
-4.9391
 30
0.0
  0
SPLINE
  5
9E
330
1F
100
AcDbEntity
  8
VRSTVA_1
100
AcDbSpline
210
0.0
220
0.0
230
1.0
 70
    24
 71
     3
 72
     8
 73
     4
 74
     0
 42
0.0000000001
 43
0.0000000001
 40
0.0
 40
0.0
 40
0.0
 40
0.0
 40
1.0
 40
1.0
 40
1.0
 40
1.0
 10
27.9266
 20
-4.4579
 30
0.0
 10
27.9266
 20
-4.4579
 30
0.0
 10
27.9236
 20
-4.4968
 30
0.0
 10
27.9236
 20
-4.4968
 30
0.0
  0
SPLINE
  5
9F
330
1F
100
AcDbEntity
  8
VRSTVA_1
100
AcDbSpline
210
0.0
220
0.0
230
1.0
 70
    24
 71
     3
 72
     8
 73
     4
 74
     0
 42
0.0000000001
 43
0.0000000001
 40
0.0
 40
0.0
 40
0.0
 40
0.0
 40
1.0
 40
1.0
 40
1.0
 40
1.0
 10
27.9311
 20
-4.4075
 30
0.0
 10
27.9311
 20
-4.4075
 30
0.0
 10
27.9272
 20
-4.4505
 30
0.0
 10
27.9272
 20
-4.4505
 30
0.0
  0
SPLINE
  5
A0
330
1F
100
AcDbEntity
  8
VRSTVA_1
100
AcDbSpline
210
0.0
220
0.0
230
1.0
 70
    24
 71
     3
 72
     8
 73
     4
 74
     0
 42
0.0000000001
 43
0.0000000001
 40
0.0
 40
0.0
 40
0.0
 40
0.0
 40
1.0
 40
1.0
 40
1.0
 40
1.0
 10
28.0316
 20
-6.4831
 30
0.0
 10
28.0316
 20
-6.4831
 30
0.0
 10
28.022
 20
-6.4317
 30
0.0
 10
28.022
 20
-6.4317
 30
0.0
  0
SPLINE
  5
A1
330
1F
100
AcDbEntity
  8
VRSTVA_1
100
AcDbSpline
210
0.0
220
0.0
230
1.0
 70
    24
 71
     3
 72
     8
 73
     4
 74
     0
 42
0.0000000001
 43
0.0000000001
 40
0.0
 40
0.0
 40
0.0
 40
0.0
 40
1.0
 40
1.0
 40
1.0
 40
1.0
 10
28.0418
 20
-6.5354
 30
0.0
 10
28.0418
 20
-6.5354
 30
0.0
 10
28.0307
 20
-6.479
 30
0.0
 10
28.0307
 20
-6.479
 30
0.0
  0
SPLINE
  5
A2
330
1F
100
AcDbEntity
  8
VRSTVA_1
100
AcDbSpline
210
0.0
220
0.0
230
1.0
 70
    24
 71
     3
 72
     8
 73
     4
 74
     0
 42
0.0000000001
 43
0.0000000001
 40
0.0
 40
0.0
 40
0.0
 40
0.0
 40
1.0
 40
1.0
 40
1.0
 40
1.0
 10
28.0572
 20
-6.6111
 30
0.0
 10
28.0572
 20
-6.6111
 30
0.0
 10
28.0397
 20
-6.5249
 30
0.0
 10
28.0397
 20
-6.5249
 30
0.0
  0
SPLINE
  5
A3
330
1F
100
AcDbEntity
  8
VRSTVA_1
100
AcDbSpline
210
0.0
220
0.0
230
1.0
 70
    24
 71
     3
 72
     8
 73
     4
 74
     0
 42
0.0000000001
 43
0.0000000001
 40
0.0
 40
0.0
 40
0.0
 40
0.0
 40
1.0
 40
1.0
 40
1.0
 40
1.0
 10
28.018
 20
-3.7643
 30
0.0
 10
28.018
 20
-3.7643
 30
0.0
 10
28.0111
 20
-3.8034
 30
0.0
 10
28.0111
 20
-3.8034
 30
0.0
  0
SPLINE
  5
A4
330
1F
100
AcDbEntity
  8
VRSTVA_1
100
AcDbSpline
210
0.0
220
0.0
230
1.0
 70
    24
 71
     3
 72
     8
 73
     4
 74
     0
 42
0.0000000001
 43
0.0000000001
 40
0.0
 40
0.0
 40
0.0
 40
0.0
 40
1.0
 40
1.0
 40
1.0
 40
1.0
 10
28.0308
 20
-3.6952
 30
0.0
 10
28.0308
 20
-3.6952
 30
0.0
 10
28.0202
 20
-3.7524
 30
0.0
 10
28.0202
 20
-3.7524
 30
0.0
  0
SPLINE
  5
A5
330
1F
100
AcDbEntity
  8
VRSTVA_1
100
AcDbSpline
210
0.0
220
0.0
230
1.0
 70
    24
 71
     3
 72
     8
 73
     4
 74
     0
 42
0.0000000001
 43
0.0000000001
 40
0.0
 40
0.0
 40
0.0
 40
0.0
 40
1.0
 40
1.0
 40
1.0
 40
1.0
 10
28.0464
 20
-3.6152
 30
0.0
 10
28.0464
 20
-3.6152
 30
0.0
 10
28.0283
 20
-3.7082
 30
0.0
 10
28.0283
 20
-3.7082
 30
0.0
  0
SPLINE
  5
A6
330
1F
100
AcDbEntity
  8
VRSTVA_1
100
AcDbSpline
210
0.0
220
0.0
230
1.0
 70
    24
 71
     3
 72
     8
 73
     4
 74
     0
 42
0.0000000001
 43
0.0000000001
 40
0.0
 40
0.0
 40
0.0
 40
0.0
 40
1.0
 40
1.0
 40
1.0
 40
1.0
 10
28.0533
 20
-3.582
 30
0.0
 10
28.0533
 20
-3.582
 30
0.0
 10
28.0418
 20
-3.6387
 30
0.0
 10
28.0418
 20
-3.6387
 30
0.0
  0
SPLINE
  5
A7
330
1F
100
AcDbEntity
  8
VRSTVA_1
100
AcDbSpline
210
0.0
220
0.0
230
1.0
 70
     8
 71
     3
 72
     8
 73
     4
 74
     0
 42
0.0000000001
 43
0.0000000001
 40
0.0
 40
0.0
 40
0.0
 40
0.0
 40
1.0
 40
1.0
 40
1.0
 40
1.0
 10
28.2166
 20
-8.005
 30
0.0
 10
28.2925
 20
-8.0038
 30
0.0
 10
28.4641
 20
-8.0337
 30
0.0
 10
28.449
 20
-7.9022
 30
0.0
  0
SPLINE
  5
A8
330
1F
100
AcDbEntity
  8
VRSTVA_1
100
AcDbSpline
210
0.0
220
0.0
230
1.0
 70
     8
 71
     3
 72
     8
 73
     4
 74
     0
 42
0.0000000001
 43
0.0000000001
 40
0.0
 40
0.0
 40
0.0
 40
0.0
 40
1.0
 40
1.0
 40
1.0
 40
1.0
 10
27.8413
 20
-8.1616
 30
0.0
 10
28.135
 20
-8.1565
 30
0.0
 10
28.0049
 20
-8.2063
 30
0.0
 10
28.2287
 20
-8.0049
 30
0.0
  0
SPLINE
  5
A9
330
1F
100
AcDbEntity
  8
VRSTVA_1
100
AcDbSpline
210
0.0
220
0.0
230
1.0
 70
     8
 71
     3
 72
     8
 73
     4
 74
     0
 42
0.0000000001
 43
0.0000000001
 40
0.0
 40
0.0
 40
0.0
 40
0.0
 40
1.0
 40
1.0
 40
1.0
 40
1.0
 10
28.4476
 20
-2.2779
 30
0.0
 10
28.4895
 20
-2.1068
 30
0.0
 10
28.1269
 20
-2.1676
 30
0.0
 10
28.1051
 20
-2.1672
 30
0.0
  0
SPLINE
  5
AA
330
1F
100
AcDbEntity
  8
VRSTVA_1
100
AcDbSpline
210
0.0
220
0.0
230
1.0
 70
    24
 71
     3
 72
     8
 73
     4
 74
     0
 42
0.0000000001
 43
0.0000000001
 40
0.0
 40
0.0
 40
0.0
 40
0.0
 40
1.0
 40
1.0
 40
1.0
 40
1.0
 10
28.1051
 20
-2.1672
 30
0.0
 10
28.1051
 20
-2.1672
 30
0.0
 10
27.8413
 20
-2.1626
 30
0.0
 10
27.8413
 20
-2.1626
 30
0.0
  0
SPLINE
  5
AB
330
1F
100
AcDbEntity
  8
VRSTVA_1
100
AcDbSpline
210
0.0
220
0.0
230
1.0
 70
     8
 71
     3
 72
     8
 73
     4
 74
     0
 42
0.0000000001
 43
0.0000000001
 40
0.0
 40
0.0
 40
0.0
 40
0.0
 40
1.0
 40
1.0
 40
1.0
 40
1.0
 10
28.0585
 20
-6.6177
 30
0.0
 10
28.109
 20
-6.8392
 30
0.0
 10
28.1655
 20
-7.0569
 30
0.0
 10
28.2291
 20
-7.2749
 30
0.0
  0
SPLINE
  5
AC
330
1F
100
AcDbEntity
  8
VRSTVA_1
100
AcDbSpline
210
0.0
220
0.0
230
1.0
 70
     8
 71
     3
 72
     8
 73
     4
 74
     0
 42
0.0000000001
 43
0.0000000001
 40
0.0
 40
0.0
 40
0.0
 40
0.0
 40
1.0
 40
1.0
 40
1.0
 40
1.0
 10
28.0508
 20
-3.594
 30
0.0
 10
28.103
 20
-3.3477
 30
0.0
 10
28.1676
 20
-3.106
 30
0.0
 10
28.2398
 20
-2.8649
 30
0.0
  0
SPLINE
  5
AD
330
1F
100
AcDbEntity
  8
VRSTVA_1
100
AcDbSpline
210
0.0
220
0.0
230
1.0
 70
    24
 71
     3
 72
     8
 73
     4
 74
     0
 42
0.0000000001
 43
0.0000000001
 40
0.0
 40
0.0
 40
0.0
 40
0.0
 40
1.0
 40
1.0
 40
1.0
 40
1.0
 10
28.4251
 20
-7.8978
 30
0.0
 10
28.4251
 20
-7.8978
 30
0.0
 10
28.4287
 20
-7.8911
 30
0.0
 10
28.4287
 20
-7.8911
 30
0.0
  0
SPLINE
  5
AE
330
1F
100
AcDbEntity
  8
VRSTVA_1
100
AcDbSpline
210
0.0
220
0.0
230
1.0
 70
    24
 71
     3
 72
     8
 73
     4
 74
     0
 42
0.0000000001
 43
0.0000000001
 40
0.0
 40
0.0
 40
0.0
 40
0.0
 40
1.0
 40
1.0
 40
1.0
 40
1.0
 10
28.4251
 20
-7.8978
 30
0.0
 10
28.4251
 20
-7.8978
 30
0.0
 10
28.4262
 20
-7.8922
 30
0.0
 10
28.4262
 20
-7.8922
 30
0.0
  0
SPLINE
  5
AF
330
1F
100
AcDbEntity
  8
VRSTVA_1
100
AcDbSpline
210
0.0
220
0.0
230
1.0
 70
     8
 71
     3
 72
    24
 73
    20
 74
     0
 42
0.0000000001
 43
0.0000000001
 40
0.0
 40
0.0
 40
0.0
 40
0.0
 40
0.1666666666666667
 40
0.1666666666666667
 40
0.1666666666666667
 40
0.1666666666666667
 40
0.3333333333333333
 40
0.3333333333333333
 40
0.3333333333333333
 40
0.3333333333333333
 40
0.5
 40
0.5
 40
0.5
 40
0.5
 40
0.6666666666666666
 40
0.6666666666666666
 40
0.6666666666666666
 40
0.6666666666666666
 40
1.0
 40
1.0
 40
1.0
 40
1.0
 10
28.442
 20
-7.9492
 30
0.0
 10
28.4694
 20
-7.8806
 30
0.0
 10
28.4026
 20
-7.7733
 30
0.0
 10
28.3859
 20
-7.7282
 30
0.0
 10
28.3859
 20
-7.7282
 30
0.0
 10
28.3077
 20
-7.5178
 30
0.0
 10
28.2352
 20
-7.306
 30
0.0
 10
28.1743
 20
-7.0898
 30
0.0
 10
28.1743
 20
-7.0898
 30
0.0
 10
28.0204
 20
-6.5426
 30
0.0
 10
27.9283
 20
-5.9744
 30
0.0
 10
27.9068
 20
-5.4061
 30
0.0
 10
27.9068
 20
-5.4061
 30
0.0
 10
27.8854
 20
-4.8374
 30
0.0
 10
27.921
 20
-4.2662
 30
0.0
 10
28.0284
 20
-3.7068
 30
0.0
 10
28.0284
 20
-3.7068
 30
0.0
 10
28.0707
 20
-3.4872
 30
0.0
 10
28.1213
 20
-3.2698
 30
0.0
 10
28.1827
 20
-3.0548
 30
0.0
  0
SPLINE
  5
B0
330
1F
100
AcDbEntity
  8
VRSTVA_1
100
AcDbSpline
210
0.0
220
0.0
230
1.0
 70
     8
 71
     3
 72
    12
 73
     8
 74
     0
 42
0.0000000001
 43
0.0000000001
 40
0.0
 40
0.0
 40
0.0
 40
0.0
 40
0.3333333333333333
 40
0.3333333333333333
 40
0.3333333333333333
 40
0.3333333333333333
 40
1.0
 40
1.0
 40
1.0
 40
1.0
 10
28.1827
 20
-3.0548
 30
0.0
 10
28.1827
 20
-3.0548
 30
0.0
 10
28.334
 20
-2.585
 30
0.0
 10
28.334
 20
-2.585
 30
0.0
 10
28.334
 20
-2.585
 30
0.0
 10
28.334
 20
-2.585
 30
0.0
 10
28.4439
 20
-2.2895
 30
0.0
 10
28.4439
 20
-2.2895
 30
0.0
  0
SPLINE
  5
B1
330
1F
100
AcDbEntity
  8
VRSTVA_1
100
AcDbSpline
210
0.0
220
0.0
230
1.0
 70
     8
 71
     3
 72
     8
 73
     4
 74
     0
 42
0.0000000001
 43
0.0000000001
 40
0.0
 40
0.0
 40
0.0
 40
0.0
 40
1.0
 40
1.0
 40
1.0
 40
1.0
 10
28.4439
 20
-2.2895
 30
0.0
 10
28.4607
 20
-2.2443
 30
0.0
 10
28.4359
 20
-2.1928
 30
0.0
 10
28.3891
 20
-2.1795
 30
0.0
  0
SPLINE
  5
B2
330
1F
100
AcDbEntity
  8
VRSTVA_1
100
AcDbSpline
210
0.0
220
0.0
230
1.0
 70
     8
 71
     3
 72
    20
 73
    16
 74
     0
 42
0.0000000001
 43
0.0000000001
 40
0.0
 40
0.0
 40
0.0
 40
0.0
 40
0.2
 40
0.2
 40
0.2
 40
0.2
 40
0.4
 40
0.4
 40
0.4
 40
0.4
 40
0.6
 40
0.6
 40
0.6
 40
0.6
 40
1.0
 40
1.0
 40
1.0
 40
1.0
 10
28.3891
 20
-2.1795
 30
0.0
 10
28.3891
 20
-2.1795
 30
0.0
 10
28.3677
 20
-2.1762
 30
0.0
 10
28.3677
 20
-2.1762
 30
0.0
 10
28.3677
 20
-2.1762
 30
0.0
 10
28.3677
 20
-2.1762
 30
0.0
 10
28.0345
 20
-2.1704
 30
0.0
 10
28.0345
 20
-2.1704
 30
0.0
 10
28.0345
 20
-2.1704
 30
0.0
 10
28.0345
 20
-2.1704
 30
0.0
 10
27.5407
 20
-2.1618
 30
0.0
 10
27.5407
 20
-2.1618
 30
0.0
 10
27.5407
 20
-2.1618
 30
0.0
 10
27.5407
 20
-2.1618
 30
0.0
 10
27.2076
 20
-2.156
 30
0.0
 10
27.2076
 20
-2.156
 30
0.0
  0
SPLINE
  5
B3
330
1F
100
AcDbEntity
  8
VRSTVA_1
100
AcDbSpline
210
0.0
220
0.0
230
1.0
 70
     8
 71
     3
 72
    12
 73
     8
 74
     0
 42
0.0000000001
 43
0.0000000001
 40
0.0
 40
0.0
 40
0.0
 40
0.0
 40
0.3333333333333333
 40
0.3333333333333333
 40
0.3333333333333333
 40
0.3333333333333333
 40
1.0
 40
1.0
 40
1.0
 40
1.0
 10
27.3807
 20
-8.0152
 30
0.0
 10
27.3807
 20
-8.0152
 30
0.0
 10
27.3834
 20
-8.0152
 30
0.0
 10
27.3834
 20
-8.0152
 30
0.0
 10
27.3834
 20
-8.0152
 30
0.0
 10
27.3834
 20
-8.0152
 30
0.0
 10
27.3834
 20
-2.159
 30
0.0
 10
27.3834
 20
-2.159
 30
0.0
  0
SPLINE
  5
B4
330
1F
100
AcDbEntity
  8
VRSTVA_1
100
AcDbSpline
210
0.0
220
0.0
230
1.0
 70
     8
 71
     3
 72
     8
 73
     4
 74
     0
 42
0.0000000001
 43
0.0000000001
 40
0.0
 40
0.0
 40
0.0
 40
0.0
 40
1.0
 40
1.0
 40
1.0
 40
1.0
 10
27.3834
 20
-2.5756
 30
0.0
 10
27.3372
 20
-2.5748
 30
0.0
 10
27.2712
 20
-2.5851
 30
0.0
 10
27.223
 20
-2.5635
 30
0.0
  0
SPLINE
  5
B5
330
1F
100
AcDbEntity
  8
VRSTVA_1
100
AcDbSpline
210
0.0
220
0.0
230
1.0
 70
     8
 71
     3
 72
     8
 73
     4
 74
     0
 42
0.0000000001
 43
0.0000000001
 40
0.0
 40
0.0
 40
0.0
 40
0.0
 40
1.0
 40
1.0
 40
1.0
 40
1.0
 10
28.2294
 20
-8.0003
 30
0.0
 10
28.113
 20
-8.0427
 30
0.0
 10
27.9661
 20
-8.1237
 30
0.0
 10
27.8413
 20
-8.126
 30
0.0
  0
SPLINE
  5
B6
330
1F
100
AcDbEntity
  8
VRSTVA_1
100
AcDbSpline
210
0.0
220
0.0
230
1.0
 70
     8
 71
     3
 72
    12
 73
     8
 74
     0
 42
0.0000000001
 43
0.0000000001
 40
0.0
 40
0.0
 40
0.0
 40
0.0
 40
0.3333333333333333
 40
0.3333333333333333
 40
0.3333333333333333
 40
0.3333333333333333
 40
1.0
 40
1.0
 40
1.0
 40
1.0
 10
27.2076
 20
-8.0183
 30
0.0
 10
27.2076
 20
-8.0183
 30
0.0
 10
27.5407
 20
-8.0124
 30
0.0
 10
27.5407
 20
-8.0124
 30
0.0
 10
27.5407
 20
-8.0124
 30
0.0
 10
27.5407
 20
-8.0124
 30
0.0
 10
28.0345
 20
-8.0038
 30
0.0
 10
28.0345
 20
-8.0038
 30
0.0
  0
SPLINE
  5
B7
330
1F
100
AcDbEntity
  8
VRSTVA_1
100
AcDbSpline
210
0.0
220
0.0
230
1.0
 70
     8
 71
     3
 72
     8
 73
     4
 74
     0
 42
0.0000000001
 43
0.0000000001
 40
0.0
 40
0.0
 40
0.0
 40
0.0
 40
1.0
 40
1.0
 40
1.0
 40
1.0
 10
28.0345
 20
-8.0038
 30
0.0
 10
28.04
 20
-8.0038
 30
0.0
 10
28.3924
 20
-8.0712
 30
0.0
 10
28.445
 20
-7.9416
 30
0.0
  0
SPLINE
  5
B8
330
1F
100
AcDbEntity
  8
VRSTVA_1
100
AcDbSpline
210
0.0
220
0.0
230
1.0
 70
     8
 71
     3
 72
     8
 73
     4
 74
     0
 42
0.0000000001
 43
0.0000000001
 40
0.0
 40
0.0
 40
0.0
 40
0.0
 40
1.0
 40
1.0
 40
1.0
 40
1.0
 10
27.3834
 20
-7.5986
 30
0.0
 10
27.3372
 20
-7.5995
 30
0.0
 10
27.2712
 20
-7.5892
 30
0.0
 10
27.223
 20
-7.6107
 30
0.0
  0
SPLINE
  5
B9
330
1F
100
AcDbEntity
  8
VRSTVA_1
 62
   250
100
AcDbSpline
210
0.0
220
0.0
230
1.0
 70
    11
 71
     3
 72
    20
 73
    16
 74
     0
 42
0.0000000001
 43
0.0000000001
 40
0.0
 40
0.0
 40
0.0
 40
0.0
 40
0.2
 40
0.2
 40
0.2
 40
0.2
 40
0.4
 40
0.4
 40
0.4
 40
0.4
 40
0.6
 40
0.6
 40
0.6
 40
0.6
 40
1.0
 40
1.0
 40
1.0
 40
1.0
 10
22.7697
 20
-17.9687
 30
0.0
 10
22.7697
 20
-17.9687
 30
0.0
 10
25.7714
 20
-18.3923
 30
0.0
 10
25.7714
 20
-18.3923
 30
0.0
 10
25.7714
 20
-18.3923
 30
0.0
 10
25.7714
 20
-18.3923
 30
0.0
 10
25.7714
 20
-18.4864
 30
0.0
 10
25.7714
 20
-18.4864
 30
0.0
 10
25.7714
 20
-18.4864
 30
0.0
 10
25.7714
 20
-18.4864
 30
0.0
 10
22.7697
 20
-18.9382
 30
0.0
 10
22.7697
 20
-18.9382
 30
0.0
 10
22.7697
 20
-18.9382
 30
0.0
 10
22.7697
 20
-18.9382
 30
0.0
 10
22.7697
 20
-17.9687
 30
0.0
 10
22.7697
 20
-17.9687
 30
0.0
  0
SPLINE
  5
BA
330
1F
100
AcDbEntity
  8
VRSTVA_1
 62
   250
100
AcDbSpline
210
0.0
220
0.0
230
1.0
 70
    11
 71
     3
 72
    20
 73
    16
 74
     0
 42
0.0000000001
 43
0.0000000001
 40
0.0
 40
0.0
 40
0.0
 40
0.0
 40
0.2
 40
0.2
 40
0.2
 40
0.2
 40
0.4
 40
0.4
 40
0.4
 40
0.4
 40
0.6
 40
0.6
 40
0.6
 40
0.6
 40
1.0
 40
1.0
 40
1.0
 40
1.0
 10
31.771
 20
-18.93
 30
0.0
 10
31.771
 20
-18.93
 30
0.0
 10
28.7688
 20
-18.5064
 30
0.0
 10
28.7688
 20
-18.5064
 30
0.0
 10
28.7688
 20
-18.5064
 30
0.0
 10
28.7688
 20
-18.5064
 30
0.0
 10
28.7688
 20
-18.4123
 30
0.0
 10
28.7688
 20
-18.4123
 30
0.0
 10
28.7688
 20
-18.4123
 30
0.0
 10
28.7688
 20
-18.4123
 30
0.0
 10
31.771
 20
-17.9604
 30
0.0
 10
31.771
 20
-17.9604
 30
0.0
 10
31.771
 20
-17.9604
 30
0.0
 10
31.771
 20
-17.9604
 30
0.0
 10
31.771
 20
-18.93
 30
0.0
 10
31.771
 20
-18.93
 30
0.0
  0
SPLINE
  5
BB
330
1F
100
AcDbEntity
  8
VRSTVA_1
 62
   250
100
AcDbSpline
210
0.0
220
0.0
230
1.0
 70
    24
 71
     3
 72
     8
 73
     4
 74
     0
 42
0.0000000001
 43
0.0000000001
 40
0.0
 40
0.0
 40
0.0
 40
0.0
 40
1.0
 40
1.0
 40
1.0
 40
1.0
 10
25.8435
 20
-14.7651
 30
0.0
 10
25.8435
 20
-14.7651
 30
0.0
 10
25.8435
 20
-18.8734
 30
0.0
 10
25.8435
 20
-18.8734
 30
0.0
  0
SPLINE
  5
BC
330
1F
100
AcDbEntity
  8
VRSTVA_1
 62
   250
100
AcDbSpline
210
0.0
220
0.0
230
1.0
 70
    24
 71
     3
 72
     8
 73
     4
 74
     0
 42
0.0000000001
 43
0.0000000001
 40
0.0
 40
0.0
 40
0.0
 40
0.0
 40
1.0
 40
1.0
 40
1.0
 40
1.0
 10
28.7095
 20
-8.6097
 30
0.0
 10
28.7095
 20
-8.6097
 30
0.0
 10
28.7095
 20
-18.8185
 30
0.0
 10
28.7095
 20
-18.8185
 30
0.0
  0
SPLINE
  5
BD
330
1F
100
AcDbEntity
  8
VRSTVA_1
 62
   250
100
AcDbSpline
210
0.0
220
0.0
230
1.0
 70
    24
 71
     3
 72
     8
 73
     4
 74
     0
 42
0.0000000001
 43
0.0000000001
 40
0.0
 40
0.0
 40
0.0
 40
0.0
 40
1.0
 40
1.0
 40
1.0
 40
1.0
 10
32.8521
 20
-18.4644
 30
0.0
 10
32.8521
 20
-18.4644
 30
0.0
 10
19.4642
 20
-18.4644
 30
0.0
 10
19.4642
 20
-18.4644
 30
0.0
  0
SPLINE
  5
BE
330
1F
100
AcDbEntity
  8
VRSTVA_1
 62
   250
100
AcDbSpline
210
0.0
220
0.0
230
1.0
 70
    11
 71
     3
 72
    40
 73
    36
 74
     0
 42
0.0000000001
 43
0.0000000001
 40
0.0
 40
0.0
 40
0.0
 40
0.0
 40
0.1
 40
0.1
 40
0.1
 40
0.1
 40
0.2
 40
0.2
 40
0.2
 40
0.2
 40
0.3
 40
0.3
 40
0.3
 40
0.3
 40
0.4
 40
0.4
 40
0.4
 40
0.4
 40
0.5
 40
0.5
 40
0.5
 40
0.5
 40
0.6
 40
0.6
 40
0.6
 40
0.6
 40
0.7
 40
0.7
 40
0.7
 40
0.7
 40
0.8
 40
0.8
 40
0.8
 40
0.8
 40
1.0
 40
1.0
 40
1.0
 40
1.0
 10
20.2743
 20
-17.8866
 30
0.0
 10
20.2743
 20
-17.8866
 30
0.0
 10
20.0264
 20
-17.8866
 30
0.0
 10
20.0264
 20
-17.8866
 30
0.0
 10
20.0264
 20
-17.8866
 30
0.0
 10
20.0264
 20
-17.8866
 30
0.0
 10
20.0264
 20
-16.3062
 30
0.0
 10
20.0264
 20
-16.3062
 30
0.0
 10
20.0264
 20
-16.3062
 30
0.0
 10
19.9666
 20
-16.3631
 30
0.0
 10
19.8886
 20
-16.42
 30
0.0
 10
19.7917
 20
-16.4769
 30
0.0
 10
19.7917
 20
-16.4769
 30
0.0
 10
19.6943
 20
-16.5338
 30
0.0
 10
19.6073
 20
-16.5766
 30
0.0
 10
19.5301
 20
-16.6049
 30
0.0
 10
19.5301
 20
-16.6049
 30
0.0
 10
19.5301
 20
-16.6049
 30
0.0
 10
19.5301
 20
-16.3654
 30
0.0
 10
19.5301
 20
-16.3654
 30
0.0
 10
19.5301
 20
-16.3654
 30
0.0
 10
19.6689
 20
-16.3001
 30
0.0
 10
19.7903
 20
-16.221
 30
0.0
 10
19.8942
 20
-16.1284
 30
0.0
 10
19.8942
 20
-16.1284
 30
0.0
 10
19.9977
 20
-16.0352
 30
0.0
 10
20.0715
 20
-15.9454
 30
0.0
 10
20.1148
 20
-15.8579
 30
0.0
 10
20.1148
 20
-15.8579
 30
0.0
 10
20.1148
 20
-15.8579
 30
0.0
 10
20.2743
 20
-15.8579
 30
0.0
 10
20.2743
 20
-15.8579
 30
0.0
 10
20.2743
 20
-15.8579
 30
0.0
 10
20.2743
 20
-15.8579
 30
0.0
 10
20.2743
 20
-17.8866
 30
0.0
 10
20.2743
 20
-17.8866
 30
0.0
  0
SPLINE
  5
BF
330
1F
100
AcDbEntity
  8
VRSTVA_1
 62
   250
100
AcDbSpline
210
0.0
220
0.0
230
1.0
 70
    11
 71
     3
 72
    92
 73
    88
 74
     0
 42
0.0000000001
 43
0.0000000001
 40
0.0
 40
0.0
 40
0.0
 40
0.0
 40
0.0434782608695652
 40
0.0434782608695652
 40
0.0434782608695652
 40
0.0434782608695652
 40
0.0869565217391304
 40
0.0869565217391304
 40
0.0869565217391304
 40
0.0869565217391304
 40
0.1304347826086956
 40
0.1304347826086956
 40
0.1304347826086956
 40
0.1304347826086956
 40
0.1739130434782609
 40
0.1739130434782609
 40
0.1739130434782609
 40
0.1739130434782609
 40
0.2173913043478261
 40
0.2173913043478261
 40
0.2173913043478261
 40
0.2173913043478261
 40
0.2608695652173913
 40
0.2608695652173913
 40
0.2608695652173913
 40
0.2608695652173913
 40
0.3043478260869565
 40
0.3043478260869565
 40
0.3043478260869565
 40
0.3043478260869565
 40
0.3478260869565217
 40
0.3478260869565217
 40
0.3478260869565217
 40
0.3478260869565217
 40
0.391304347826087
 40
0.391304347826087
 40
0.391304347826087
 40
0.391304347826087
 40
0.4347826086956522
 40
0.4347826086956522
 40
0.4347826086956522
 40
0.4347826086956522
 40
0.4782608695652174
 40
0.4782608695652174
 40
0.4782608695652174
 40
0.4782608695652174
 40
0.5217391304347826
 40
0.5217391304347826
 40
0.5217391304347826
 40
0.5217391304347826
 40
0.5652173913043478
 40
0.5652173913043478
 40
0.5652173913043478
 40
0.5652173913043478
 40
0.6086956521739131
 40
0.6086956521739131
 40
0.6086956521739131
 40
0.6086956521739131
 40
0.6521739130434783
 40
0.6521739130434783
 40
0.6521739130434783
 40
0.6521739130434783
 40
0.6956521739130435
 40
0.6956521739130435
 40
0.6956521739130435
 40
0.6956521739130435
 40
0.7391304347826086
 40
0.7391304347826086
 40
0.7391304347826086
 40
0.7391304347826086
 40
0.782608695652174
 40
0.782608695652174
 40
0.782608695652174
 40
0.782608695652174
 40
0.8260869565217391
 40
0.8260869565217391
 40
0.8260869565217391
 40
0.8260869565217391
 40
0.8695652173913043
 40
0.8695652173913043
 40
0.8695652173913043
 40
0.8695652173913043
 40
0.9130434782608695
 40
0.9130434782608695
 40
0.9130434782608695
 40
0.9130434782608695
 40
1.0
 40
1.0
 40
1.0
 40
1.0
 10
20.9097
 20
-17.3574
 30
0.0
 10
20.9097
 20
-17.3574
 30
0.0
 10
21.1703
 20
-17.3353
 30
0.0
 10
21.1703
 20
-17.3353
 30
0.0
 10
21.1703
 20
-17.3353
 30
0.0
 10
21.1896
 20
-17.4623
 30
0.0
 10
21.2343
 20
-17.5573
 30
0.0
 10
21.3044
 20
-17.6213
 30
0.0
 10
21.3044
 20
-17.6213
 30
0.0
 10
21.3749
 20
-17.6853
 30
0.0
 10
21.4596
 20
-17.7173
 30
0.0
 10
21.5588
 20
-17.7173
 30
0.0
 10
21.5588
 20
-17.7173
 30
0.0
 10
21.6783
 20
-17.7173
 30
0.0
 10
21.7794
 20
-17.6721
 30
0.0
 10
21.8617
 20
-17.5823
 30
0.0
 10
21.8617
 20
-17.5823
 30
0.0
 10
21.9445
 20
-17.492
 30
0.0
 10
21.9859
 20
-17.3725
 30
0.0
 10
21.9859
 20
-17.2239
 30
0.0
 10
21.9859
 20
-17.2239
 30
0.0
 10
21.9859
 20
-17.0823
 30
0.0
 10
21.9464
 20
-16.9708
 30
0.0
 10
21.8669
 20
-16.889
 30
0.0
 10
21.8669
 20
-16.889
 30
0.0
 10
21.7874
 20
-16.8071
 30
0.0
 10
21.6835
 20
-16.7662
 30
0.0
 10
21.5546
 20
-16.7662
 30
0.0
 10
21.5546
 20
-16.7662
 30
0.0
 10
21.4746
 20
-16.7662
 30
0.0
 10
21.4027
 20
-16.7845
 30
0.0
 10
21.3382
 20
-16.8207
 30
0.0
 10
21.3382
 20
-16.8207
 30
0.0
 10
21.2738
 20
-16.857
 30
0.0
 10
21.2235
 20
-16.904
 30
0.0
 10
21.1868
 20
-16.9619
 30
0.0
 10
21.1868
 20
-16.9619
 30
0.0
 10
21.1868
 20
-16.9619
 30
0.0
 10
20.9539
 20
-16.9318
 30
0.0
 10
20.9539
 20
-16.9318
 30
0.0
 10
20.9539
 20
-16.9318
 30
0.0
 10
20.9539
 20
-16.9318
 30
0.0
 10
21.1496
 20
-15.8941
 30
0.0
 10
21.1496
 20
-15.8941
 30
0.0
 10
21.1496
 20
-15.8941
 30
0.0
 10
21.1496
 20
-15.8941
 30
0.0
 10
22.1543
 20
-15.8941
 30
0.0
 10
22.1543
 20
-15.8941
 30
0.0
 10
22.1543
 20
-15.8941
 30
0.0
 10
22.1543
 20
-15.8941
 30
0.0
 10
22.1543
 20
-16.1312
 30
0.0
 10
22.1543
 20
-16.1312
 30
0.0
 10
22.1543
 20
-16.1312
 30
0.0
 10
22.1543
 20
-16.1312
 30
0.0
 10
21.3481
 20
-16.1312
 30
0.0
 10
21.3481
 20
-16.1312
 30
0.0
 10
21.3481
 20
-16.1312
 30
0.0
 10
21.3481
 20
-16.1312
 30
0.0
 10
21.239
 20
-16.674
 30
0.0
 10
21.239
 20
-16.674
 30
0.0
 10
21.239
 20
-16.674
 30
0.0
 10
21.3603
 20
-16.5893
 30
0.0
 10
21.4878
 20
-16.547
 30
0.0
 10
21.6209
 20
-16.547
 30
0.0
 10
21.6209
 20
-16.547
 30
0.0
 10
21.7973
 20
-16.547
 30
0.0
 10
21.9459
 20
-16.6081
 30
0.0
 10
22.0673
 20
-16.7304
 30
0.0
 10
22.0673
 20
-16.7304
 30
0.0
 10
22.1886
 20
-16.8527
 30
0.0
 10
22.2493
 20
-17.0098
 30
0.0
 10
22.2493
 20
-17.2017
 30
0.0
 10
22.2493
 20
-17.2017
 30
0.0
 10
22.2493
 20
-17.3847
 30
0.0
 10
22.1957
 20
-17.5428
 30
0.0
 10
22.0894
 20
-17.6759
 30
0.0
 10
22.0894
 20
-17.6759
 30
0.0
 10
21.9596
 20
-17.8391
 30
0.0
 10
21.7827
 20
-17.9209
 30
0.0
 10
21.5588
 20
-17.9209
 30
0.0
 10
21.5588
 20
-17.9209
 30
0.0
 10
21.3749
 20
-17.9209
 30
0.0
 10
21.2249
 20
-17.8697
 30
0.0
 10
21.1087
 20
-17.7667
 30
0.0
 10
21.1087
 20
-17.7667
 30
0.0
 10
20.9925
 20
-17.6636
 30
0.0
 10
20.9262
 20
-17.5272
 30
0.0
 10
20.9097
 20
-17.3574
 30
0.0
  0
ENDSEC
  0
SECTION
  2
OBJECTS
  0
DICTIONARY
  5
C
330
0
100
AcDbDictionary
  3
ACAD_GROUP
350
D
  3
ACAD_LAYOUT
350
1A
  3
ACAD_MATERIAL
350
3B
  3
ACAD_MLEADERSTYLE
350
E2
  3
ACAD_MLINESTYLE
350
17
  3
ACAD_PLOTSETTINGS
350
19
  3
ACAD_VISUALSTYLE
350
2A
  3
ACDBHEADERROUNDTRIPXREC
350
C0
  3
ACDBVARIABLEDICTIONARY
350
E0
  0
DICTIONARY
  5
D
102
{ACAD_REACTORS
330
C
102
}
330
C
100
AcDbDictionary
  0
DICTIONARY
  5
1A
102
{ACAD_REACTORS
330
C
102
}
330
C
100
AcDbDictionary
  0
DICTIONARY
  5
3B
102
{ACAD_REACTORS
330
C
102
}
330
C
100
AcDbDictionary
  3
BYBLOCK
350
3D
  3
BYLAYER
350
3C
  3
GLOBAL
350
3E
  0
DICTIONARY
  5
E2
102
{ACAD_REACTORS
330
C
102
}
330
C
100
AcDbDictionary
  0
DICTIONARY
  5
17
102
{ACAD_REACTORS
330
C
102
}
330
C
100
AcDbDictionary
  3
STANDARD
350
18
  0
DICTIONARY
  5
19
102
{ACAD_REACTORS
330
C
102
}
330
C
100
AcDbDictionary
  0
DICTIONARY
  5
2A
102
{ACAD_REACTORS
330
C
102
}
330
C
100
AcDbDictionary
  3
2DWIREFRAME
350
2F
  3
3D_HIDDEN
350
31
  3
3DWIREFRAME
350
30
  3
BASIC
350
32
  3
BRIGHTEN
350
36
  3
COLORCHANGE
350
3A
  3
CONCEPTUAL
350
34
  3
DIM
350
35
  3
FACEPATTERN
350
39
  3
FLAT
350
2B
  3
FLATWITHEDGES
350
2C
  3
GOURAUD
350
2D
  3
GOURAUDWITHEDGES
350
2E
  3
LINEPATTERN
350
38
  3
REALISTIC
350
33
  3
THICKEN
350
37
  0
DICTIONARY
  5
C0
102
{ACAD_REACTORS
330
C
102
}
330
C
100
AcDbDictionary
  3
CEPSNTYPE
350
C9
  3
DIMSTYLEDATA
350
DF
  3
FINGERPRINTGUID
350
CA
  3
HYPERLINKBASE
350
C3
  3
INSUNITS
350
C8
  3
LAYOUTDICT
350
C5
  3
LWETCUNION
350
C7
  3
PLOTSETDICT
350
C6
  3
PSVPSCALE
350
CC
  3
PUCSBASE
350
CF
  3
PUCSORGBACK
350
D5
  3
PUCSORGBOTTOM
350
D1
  3
PUCSORGFRONT
350
D4
  3
PUCSORGLEFT
350
D2
  3
PUCSORGRIGHT
350
D3
  3
PUCSORGTOP
350
D0
  3
PUCSORTHOREF
350
CD
  3
PUCSORTHOVIEW
350
CE
  3
STYLESHEET
350
C4
  3
TSTACKALIGN
350
C1
  3
TSTACKSIZE
350
C2
  3
UCSBASE
350
D8
  3
UCSORGBACK
350
DE
  3
UCSORGBOTTOM
350
DA
  3
UCSORGFRONT
350
DD
  3
UCSORGLEFT
350
DB
  3
UCSORGRIGHT
350
DC
  3
UCSORGTOP
350
D9
  3
UCSORTHOREF
350
D6
  3
UCSORTHOVIEW
350
D7
  3
VERSIONGUID
350
CB
  0
DICTIONARY
  5
E0
102
{ACAD_REACTORS
330
C
102
}
330
C
100
AcDbDictionary
  3
DIMASSOC
350
E3
  3
HIDETEXT
350
E4
  0
MATERIAL
  5
3D
102
{ACAD_REACTORS
330
3B
102
}
102
{ACAD_XDICTIONARY
360
E7
102
}
330
3B
100
AcDbMaterial
  1
ByBlock
  0
MATERIAL
  5
3C
102
{ACAD_REACTORS
330
3B
102
}
102
{ACAD_XDICTIONARY
360
E5
102
}
330
3B
100
AcDbMaterial
  1
ByLayer
  0
MATERIAL
  5
3E
102
{ACAD_REACTORS
330
3B
102
}
102
{ACAD_XDICTIONARY
360
E9
102
}
330
3B
100
AcDbMaterial
  1
Global
  0
MLINESTYLE
  5
18
102
{ACAD_REACTORS
330
17
102
}
330
17
100
AcDbMlineStyle
  2
Standard
 70
     0
  3

 62
   256
 51
90.0
 52
90.0
 71
     2
 49
0.5
 62
   256
  6
BYLAYER
 49
-0.5
 62
   256
  6
BYLAYER
  0
ACAD_PROXY_OBJECT
  5
2F
102
{ACAD_REACTORS
330
2A
102
}
330
2A
100
AcDbProxyObject
 90
      499
 91
      501
 93
      436
310
42CC9915DA5C99599C985B595049028333333333333E3BF0000000000000FB0107901411070040501600405405064090741402480A0340
1001
ACAD
1000
AcDbSavedByObjectVersion
1070
     0
  0
ACAD_PROXY_OBJECT
  5
31
102
{ACAD_REACTORS
330
2A
102
}
330
2A
100
AcDbProxyObject
 90
      499
 91
      501
 93
      500
310
424CD108121A5919195B90640502408333333333333E3BF0000000000000FB01079024090700405020000000000001110200405405064090740C02480A0340
1001
ACAD
1000
AcDbSavedByObjectVersion
1070
     0
  0
ACAD_PROXY_OBJECT
  5
30
102
{ACAD_REACTORS
330
2A
102
}
330
2A
100
AcDbProxyObject
 90
      499
 91
      501
 93
      436
310
42CCD915DA5C99599C985B595059028333333333333E3BF0000000000000FB0107901411070040501600405405064090741402480A0340
1001
ACAD
1000
AcDbSavedByObjectVersion
1070
     0
  0
ACAD_PROXY_OBJECT
  5
32
102
{ACAD_REACTORS
330
2A
102
}
330
2A
100
AcDbProxyObject
 90
      499
 91
      501
 93
      388
310
4150985CDA58D07406404333333333333E3BF0000000000000FB0107A41107004050150841D405064090741402480A0350
1001
ACAD
1000
AcDbSavedByObjectVersion
1070
     0
  0
ACAD_PROXY_OBJECT
  5
36
102
{ACAD_REACTORS
330
2A
102
}
330
2A
100
AcDbProxyObject
 90
      499
 91
      501
 93
      428
310
42109C9A59DA1D195B90C409028333333333333E3BF0000000000000FB010790141107004050150841D405064090741402480A029950
1001
ACAD
1000
AcDbSavedByObjectVersion
1070
     0
  0
ACAD_PROXY_OBJECT
  5
3A
102
{ACAD_REACTORS
330
2A
102
}
330
2A
100
AcDbProxyObject
 90
      499
 91
      501
 93
      452
310
42D0DBDB1BDC90DA185B99D95104090240C333333333333E3BF0000000000000FB0108901411070040501508421405064090741402480A0350
1001
ACAD
1000
AcDbSavedByObjectVersion
1070
     0
  0
ACAD_PROXY_OBJECT
  5
34
102
{ACAD_REACTORS
330
2A
102
}
330
2A
100
AcDbProxyObject
 90
      499
 91
      501
 93
      500
310
4290DBDB98D95C1D1D585B10940D028333333333333E3BF0000000000000FB0107902409070040501000000000000111010841D405064090740C02480A0340
1001
ACAD
1000
AcDbSavedByObjectVersion
1070
     0
  0
ACAD_PROXY_OBJECT
  5
35
102
{ACAD_REACTORS
330
2A
102
}
330
2A
100
AcDbProxyObject
 90
      499
 91
      501
 93
      412
310
40D11A5B50B409028333333333333E3BF0000000000000FB010790141107004050150841D405064090741402480A02677FFFFFD0
1001
ACAD
1000
AcDbSavedByObjectVersion
1070
     0
  0
ACAD_PROXY_OBJECT
  5
39
102
{ACAD_REACTORS
330
2A
102
}
330
2A
100
AcDbProxyObject
 90
      499
 91
      501
 93
      444
310
42D19858D95C185D1D195C9B90F409028333333333333E3BF0000000000000FB010790141107004050150841D405064090741402480A0350
1001
ACAD
1000
AcDbSavedByObjectVersion
1070
     0
  0
ACAD_PROXY_OBJECT
  5
2B
102
{ACAD_REACTORS
330
2A
102
}
330
2A
100
AcDbProxyObject
 90
      499
 91
      501
 93
      388
310
41119B185D240901404333333333333E3BF0000000000000F9010740A41107004050150841D405064090741402480A1B50
1001
ACAD
1000
AcDbSavedByObjectVersion
1070
     0
  0
ACAD_PROXY_OBJECT
  5
2C
102
{ACAD_REACTORS
330
2A
102
}
330
2A
100
AcDbProxyObject
 90
      499
 91
      501
 93
      476
310
43519B185D15DA5D1A115919D95CD0140901404333333333333E3BF0000000000000F9010740901411070040501600405405064090741402480A1B50
1001
ACAD
1000
AcDbSavedByObjectVersion
1070
     0
  0
ACAD_PROXY_OBJECT
  5
2D
102
{ACAD_REACTORS
330
2A
102
}
330
2A
100
AcDbProxyObject
 90
      499
 91
      501
 93
      412
310
41D1DBDD5C985D5910240902404333333333333E3BF0000000000000F9010740A411070040501641D405064090741402480A1B50
1001
ACAD
1000
AcDbSavedByObjectVersion
1070
     0
  0
ACAD_PROXY_OBJECT
  5
2E
102
{ACAD_REACTORS
330
2A
102
}
330
2A
100
AcDbProxyObject
 90
      499
 91
      501
 93
      500
310
4411DBDD5C985D5915DA5D1A115919D95CD0340902404333333333333E3BF0000000000000F9010740901411070040501600405405064090741402480A1B50
1001
ACAD
1000
AcDbSavedByObjectVersion
1070
     0
  0
ACAD_PROXY_OBJECT
  5
38
102
{ACAD_REACTORS
330
2A
102
}
330
2A
100
AcDbProxyObject
 90
      499
 91
      501
 93
      444
310
42D31A5B995C185D1D195C9B90E409028333333333333E3BF0000000000000FB010790141107004050750841D405064090741402483A0350
1001
ACAD
1000
AcDbSavedByObjectVersion
1070
     0
  0
ACAD_PROXY_OBJECT
  5
33
102
{ACAD_REACTORS
330
2A
102
}
330
2A
100
AcDbProxyObject
 90
      499
 91
      501
 93
      420
310
425499585B1A5CDD1A58D08409028333333333333E3BF0000000000000FB01079019070040501508421405064090741402480A1B40
1001
ACAD
1000
AcDbSavedByObjectVersion
1070
     0
  0
ACAD_PROXY_OBJECT
  5
37
102
{ACAD_REACTORS
330
2A
102
}
330
2A
100
AcDbProxyObject
 90
      499
 91
      501
 93
      412
310
41D51A1A58DAD95B90D409028333333333333E3BF0000000000000FB010790141107004050150C41D405064090741402480A0350
1001
ACAD
1000
AcDbSavedByObjectVersion
1070
     0
  0
XRECORD
  5
C9
102
{ACAD_REACTORS
330
C0
102
}
330
C0
100
AcDbXrecord
 90
        0
  0
XRECORD
  5
DF
102
{ACAD_REACTORS
330
C0
102
}
330
C0
100
AcDbXrecord
1000
DSTYLE
1002
{
1070
   340
340
11
1002
}
  0
XRECORD
  5
CA
102
{ACAD_REACTORS
330
C0
102
}
330
C0
100
AcDbXrecord
  1
{D34F4597-9532-4706-814F-84A06F1654BA}
  0
XRECORD
  5
C3
102
{ACAD_REACTORS
330
C0
102
}
330
C0
100
AcDbXrecord
  1

  0
XRECORD
  5
C8
102
{ACAD_REACTORS
330
C0
102
}
330
C0
100
AcDbXrecord
 90
        4
  0
XRECORD
  5
C5
102
{ACAD_REACTORS
330
C0
102
}
330
C0
100
AcDbXrecord
340
1A
  0
XRECORD
  5
C7
102
{ACAD_REACTORS
330
C0
102
}
330
C0
100
AcDbXrecord
 90
    10781
  0
XRECORD
  5
C6
102
{ACAD_REACTORS
330
C0
102
}
330
C0
100
AcDbXrecord
340
19
  0
XRECORD
  5
CC
102
{ACAD_REACTORS
330
C0
102
}
330
C0
100
AcDbXrecord
 40
0.0
  0
XRECORD
  5
CF
102
{ACAD_REACTORS
330
C0
102
}
330
C0
100
AcDbXrecord
340
0
  0
XRECORD
  5
D5
102
{ACAD_REACTORS
330
C0
102
}
330
C0
100
AcDbXrecord
 10
0.0
 20
0.0
 30
0.0
  0
XRECORD
  5
D1
102
{ACAD_REACTORS
330
C0
102
}
330
C0
100
AcDbXrecord
 10
0.0
 20
0.0
 30
0.0
  0
XRECORD
  5
D4
102
{ACAD_REACTORS
330
C0
102
}
330
C0
100
AcDbXrecord
 10
0.0
 20
0.0
 30
0.0
  0
XRECORD
  5
D2
102
{ACAD_REACTORS
330
C0
102
}
330
C0
100
AcDbXrecord
 10
0.0
 20
0.0
 30
0.0
  0
XRECORD
  5
D3
102
{ACAD_REACTORS
330
C0
102
}
330
C0
100
AcDbXrecord
 10
0.0
 20
0.0
 30
0.0
  0
XRECORD
  5
D0
102
{ACAD_REACTORS
330
C0
102
}
330
C0
100
AcDbXrecord
 10
0.0
 20
0.0
 30
0.0
  0
XRECORD
  5
CD
102
{ACAD_REACTORS
330
C0
102
}
330
C0
100
AcDbXrecord
340
0
  0
XRECORD
  5
CE
102
{ACAD_REACTORS
330
C0
102
}
330
C0
100
AcDbXrecord
 70
     0
  0
XRECORD
  5
C4
102
{ACAD_REACTORS
330
C0
102
}
330
C0
100
AcDbXrecord
  1

  0
XRECORD
  5
C1
102
{ACAD_REACTORS
330
C0
102
}
330
C0
100
AcDbXrecord
 90
        1
  0
XRECORD
  5
C2
102
{ACAD_REACTORS
330
C0
102
}
330
C0
100
AcDbXrecord
 90
       70
  0
XRECORD
  5
D8
102
{ACAD_REACTORS
330
C0
102
}
330
C0
100
AcDbXrecord
340
0
  0
XRECORD
  5
DE
102
{ACAD_REACTORS
330
C0
102
}
330
C0
100
AcDbXrecord
 10
0.0
 20
0.0
 30
0.0
  0
XRECORD
  5
DA
102
{ACAD_REACTORS
330
C0
102
}
330
C0
100
AcDbXrecord
 10
0.0
 20
0.0
 30
0.0
  0
XRECORD
  5
DD
102
{ACAD_REACTORS
330
C0
102
}
330
C0
100
AcDbXrecord
 10
0.0
 20
0.0
 30
0.0
  0
XRECORD
  5
DB
102
{ACAD_REACTORS
330
C0
102
}
330
C0
100
AcDbXrecord
 10
0.0
 20
0.0
 30
0.0
  0
XRECORD
  5
DC
102
{ACAD_REACTORS
330
C0
102
}
330
C0
100
AcDbXrecord
 10
0.0
 20
0.0
 30
0.0
  0
XRECORD
  5
D9
102
{ACAD_REACTORS
330
C0
102
}
330
C0
100
AcDbXrecord
 10
0.0
 20
0.0
 30
0.0
  0
XRECORD
  5
D6
102
{ACAD_REACTORS
330
C0
102
}
330
C0
100
AcDbXrecord
340
0
  0
XRECORD
  5
D7
102
{ACAD_REACTORS
330
C0
102
}
330
C0
100
AcDbXrecord
 70
     0
  0
XRECORD
  5
CB
102
{ACAD_REACTORS
330
C0
102
}
330
C0
100
AcDbXrecord
  1
{FAEB1C32-E019-11D5-929B-00C0DF256EC4}
  0
DICTIONARYVAR
  5
E3
102
{ACAD_REACTORS
330
E0
102
}
330
E0
100
DictionaryVariables
280
     0
  1
2
  0
DICTIONARYVAR
  5
E4
102
{ACAD_REACTORS
330
E0
102
}
330
E0
100
DictionaryVariables
280
     0
  1
1
  0
DICTIONARY
  5
E7
330
3D
100
AcDbDictionary
280
     1
  3
ACAD_XREC_ROUNDTRIP
360
E8
  0
DICTIONARY
  5
E5
330
3C
100
AcDbDictionary
280
     1
  3
ACAD_XREC_ROUNDTRIP
360
E6
  0
DICTIONARY
  5
E9
330
3E
100
AcDbDictionary
280
     1
  3
ACAD_XREC_ROUNDTRIP
360
EA
  0
XRECORD
  5
E8
102
{ACAD_REACTORS
330
E7
102
}
330
E7
100
AcDbXrecord
102
MATERIAL
148
0.0
149
0.0
149
0.0
 93
        0
 94
      127
282
     0
 72
     1
 77
     1
171
     1
175
     1
179
     1
273
     0
  0
XRECORD
  5
E6
102
{ACAD_REACTORS
330
E5
102
}
330
E5
100
AcDbXrecord
102
MATERIAL
148
0.0
149
0.0
149
0.0
 93
        0
 94
      127
282
     0
 72
     1
 77
     1
171
     1
175
     1
179
     1
273
     0
  0
XRECORD
  5
EA
102
{ACAD_REACTORS
330
E9
102
}
330
E9
100
AcDbXrecord
102
MATERIAL
148
0.0
149
0.0
149
0.0
 93
        0
 94
      127
282
     0
 72
     1
 77
     1
171
     1
175
     1
179
     1
273
     0
  0
ENDSEC
  0
EOF
